ISO-10303-21;
HEADER;
/* Generated by software containing ST-Developer
 * from STEP Tools, Inc. (www.steptools.com) 
 */

FILE_DESCRIPTION(
/* description */ (''),
/* implementation_level */ '2;1');

FILE_NAME(
/* name */ 'C:\\MiniTec CADmenu\\2007-2011\\DwgT\\34-030-0.stp',
/* time_stamp */ '2025-02-14T08:56:26-05:00',
/* author */ ('jmurphy'),
/* organization */ (''),
/* preprocessor_version */ 'ST-DEVELOPER v18.1',
/* originating_system */ 'AutoCAD Mechanical',
/* authorisation */ '');

FILE_SCHEMA (('AUTOMOTIVE_DESIGN { 1 0 10303 214 3 1 1 }'));
ENDSEC;

DATA;
#10=MECHANICAL_DESIGN_GEOMETRIC_PRESENTATION_REPRESENTATION('',(#14),#530);
#11=PRESENTATION_LAYER_ASSIGNMENT('0','0',(#15));
#12=SHAPE_REPRESENTATION_RELATIONSHIP('SRR','None',#536,#13);
#13=ADVANCED_BREP_SHAPE_REPRESENTATION('',(#15),#529);
#14=STYLED_ITEM('',(#545),#15);
#15=MANIFOLD_SOLID_BREP('585',#314);
#16=FACE_BOUND('',#55,.T.);
#17=FACE_BOUND('',#60,.T.);
#18=FACE_BOUND('',#62,.T.);
#19=FACE_BOUND('',#63,.T.);
#20=FACE_BOUND('',#67,.T.);
#21=FACE_BOUND('',#68,.T.);
#22=PLANE('',#325);
#23=PLANE('',#327);
#24=PLANE('',#335);
#25=PLANE('',#336);
#26=PLANE('',#337);
#27=PLANE('',#338);
#28=PLANE('',#342);
#29=PLANE('',#346);
#30=PLANE('',#347);
#31=ELLIPSE('',#323,14.2724136232018,14.);
#32=ELLIPSE('',#328,6.62647775362942,6.5);
#33=ELLIPSE('',#329,6.62647775362942,6.5);
#34=FACE_OUTER_BOUND('',#50,.T.);
#35=FACE_OUTER_BOUND('',#51,.T.);
#36=FACE_OUTER_BOUND('',#52,.T.);
#37=FACE_OUTER_BOUND('',#53,.T.);
#38=FACE_OUTER_BOUND('',#54,.T.);
#39=FACE_OUTER_BOUND('',#56,.T.);
#40=FACE_OUTER_BOUND('',#57,.T.);
#41=FACE_OUTER_BOUND('',#58,.T.);
#42=FACE_OUTER_BOUND('',#59,.T.);
#43=FACE_OUTER_BOUND('',#61,.T.);
#44=FACE_OUTER_BOUND('',#64,.T.);
#45=FACE_OUTER_BOUND('',#65,.T.);
#46=FACE_OUTER_BOUND('',#66,.T.);
#47=FACE_OUTER_BOUND('',#69,.T.);
#48=FACE_OUTER_BOUND('',#70,.T.);
#49=FACE_OUTER_BOUND('',#71,.T.);
#50=EDGE_LOOP('',(#207,#208,#209,#210));
#51=EDGE_LOOP('',(#211,#212,#213,#214));
#52=EDGE_LOOP('',(#215,#216));
#53=EDGE_LOOP('',(#217,#218,#219,#220));
#54=EDGE_LOOP('',(#221,#222,#223,#224));
#55=EDGE_LOOP('',(#225,#226,#227,#228,#229));
#56=EDGE_LOOP('',(#230,#231,#232,#233,#234,#235));
#57=EDGE_LOOP('',(#236,#237,#238,#239));
#58=EDGE_LOOP('',(#240,#241,#242,#243));
#59=EDGE_LOOP('',(#244,#245,#246,#247));
#60=EDGE_LOOP('',(#248));
#61=EDGE_LOOP('',(#249,#250,#251,#252));
#62=EDGE_LOOP('',(#253));
#63=EDGE_LOOP('',(#254));
#64=EDGE_LOOP('',(#255,#256,#257,#258));
#65=EDGE_LOOP('',(#259,#260,#261,#262));
#66=EDGE_LOOP('',(#263,#264,#265,#266));
#67=EDGE_LOOP('',(#267));
#68=EDGE_LOOP('',(#268));
#69=EDGE_LOOP('',(#269,#270,#271,#272));
#70=EDGE_LOOP('',(#273,#274,#275,#276,#277,#278,#279,#280,#281));
#71=EDGE_LOOP('',(#282,#283,#284,#285,#286,#287,#288,#289,#290));
#72=LINE('',#445,#98);
#73=LINE('',#451,#99);
#74=LINE('',#460,#100);
#75=LINE('',#463,#101);
#76=LINE('',#467,#102);
#77=LINE('',#469,#103);
#78=LINE('',#471,#104);
#79=LINE('',#472,#105);
#80=LINE('',#479,#106);
#81=LINE('',#485,#107);
#82=LINE('',#488,#108);
#83=LINE('',#490,#109);
#84=LINE('',#491,#110);
#85=LINE('',#494,#111);
#86=LINE('',#496,#112);
#87=LINE('',#497,#113);
#88=LINE('',#500,#114);
#89=LINE('',#502,#115);
#90=LINE('',#503,#116);
#91=LINE('',#506,#117);
#92=LINE('',#508,#118);
#93=LINE('',#509,#119);
#94=LINE('',#515,#120);
#95=LINE('',#518,#121);
#96=LINE('',#520,#122);
#97=LINE('',#521,#123);
#98=VECTOR('',#354,3.25);
#99=VECTOR('',#361,3.25);
#100=VECTOR('',#372,1.);
#101=VECTOR('',#375,1.);
#102=VECTOR('',#378,1.);
#103=VECTOR('',#379,1.);
#104=VECTOR('',#380,1.);
#105=VECTOR('',#381,1.);
#106=VECTOR('',#390,6.5);
#107=VECTOR('',#397,1.);
#108=VECTOR('',#400,1.);
#109=VECTOR('',#401,1.);
#110=VECTOR('',#402,1.);
#111=VECTOR('',#405,1.);
#112=VECTOR('',#406,1.);
#113=VECTOR('',#407,1.);
#114=VECTOR('',#410,1.);
#115=VECTOR('',#411,1.);
#116=VECTOR('',#412,1.);
#117=VECTOR('',#415,1.);
#118=VECTOR('',#416,1.);
#119=VECTOR('',#417,1.);
#120=VECTOR('',#424,1.);
#121=VECTOR('',#427,1.);
#122=VECTOR('',#428,1.);
#123=VECTOR('',#429,1.);
#124=CIRCLE('',#317,3.25);
#125=CIRCLE('',#318,3.25);
#126=CIRCLE('',#320,3.25);
#127=CIRCLE('',#321,3.25);
#128=CIRCLE('',#324,14.);
#129=CIRCLE('',#326,6.5);
#130=CIRCLE('',#331,6.5);
#131=CIRCLE('',#333,3.);
#132=CIRCLE('',#334,3.);
#133=CIRCLE('',#340,4.00000000000003);
#134=CIRCLE('',#341,4.00000000000003);
#135=CIRCLE('',#344,3.00000000000003);
#136=CIRCLE('',#345,3.00000000000003);
#137=VERTEX_POINT('',#442);
#138=VERTEX_POINT('',#444);
#139=VERTEX_POINT('',#448);
#140=VERTEX_POINT('',#450);
#141=VERTEX_POINT('',#454);
#142=VERTEX_POINT('',#455);
#143=VERTEX_POINT('',#459);
#144=VERTEX_POINT('',#461);
#145=VERTEX_POINT('',#465);
#146=VERTEX_POINT('',#466);
#147=VERTEX_POINT('',#468);
#148=VERTEX_POINT('',#470);
#149=VERTEX_POINT('',#473);
#150=VERTEX_POINT('',#477);
#151=VERTEX_POINT('',#481);
#152=VERTEX_POINT('',#483);
#153=VERTEX_POINT('',#487);
#154=VERTEX_POINT('',#489);
#155=VERTEX_POINT('',#493);
#156=VERTEX_POINT('',#495);
#157=VERTEX_POINT('',#499);
#158=VERTEX_POINT('',#501);
#159=VERTEX_POINT('',#505);
#160=VERTEX_POINT('',#507);
#161=VERTEX_POINT('',#511);
#162=VERTEX_POINT('',#513);
#163=VERTEX_POINT('',#517);
#164=VERTEX_POINT('',#519);
#165=EDGE_CURVE('',#137,#137,#124,.T.);
#166=EDGE_CURVE('',#137,#138,#72,.T.);
#167=EDGE_CURVE('',#138,#138,#125,.T.);
#168=EDGE_CURVE('',#139,#139,#126,.T.);
#169=EDGE_CURVE('',#139,#140,#73,.T.);
#170=EDGE_CURVE('',#140,#140,#127,.T.);
#171=EDGE_CURVE('',#141,#142,#31,.T.);
#172=EDGE_CURVE('',#142,#141,#128,.T.);
#173=EDGE_CURVE('',#143,#141,#74,.T.);
#174=EDGE_CURVE('',#144,#143,#129,.T.);
#175=EDGE_CURVE('',#142,#144,#75,.T.);
#176=EDGE_CURVE('',#145,#146,#76,.T.);
#177=EDGE_CURVE('',#146,#147,#77,.T.);
#178=EDGE_CURVE('',#148,#147,#78,.T.);
#179=EDGE_CURVE('',#145,#148,#79,.T.);
#180=EDGE_CURVE('',#144,#149,#32,.T.);
#181=EDGE_CURVE('',#149,#143,#33,.T.);
#182=EDGE_CURVE('',#150,#150,#130,.T.);
#183=EDGE_CURVE('',#150,#149,#80,.T.);
#184=EDGE_CURVE('',#151,#145,#131,.T.);
#185=EDGE_CURVE('',#152,#148,#132,.T.);
#186=EDGE_CURVE('',#151,#152,#81,.T.);
#187=EDGE_CURVE('',#151,#153,#82,.T.);
#188=EDGE_CURVE('',#154,#152,#83,.T.);
#189=EDGE_CURVE('',#153,#154,#84,.T.);
#190=EDGE_CURVE('',#155,#153,#85,.T.);
#191=EDGE_CURVE('',#156,#154,#86,.T.);
#192=EDGE_CURVE('',#155,#156,#87,.T.);
#193=EDGE_CURVE('',#157,#155,#88,.T.);
#194=EDGE_CURVE('',#158,#156,#89,.T.);
#195=EDGE_CURVE('',#157,#158,#90,.T.);
#196=EDGE_CURVE('',#159,#157,#91,.T.);
#197=EDGE_CURVE('',#160,#158,#92,.T.);
#198=EDGE_CURVE('',#159,#160,#93,.T.);
#199=EDGE_CURVE('',#159,#161,#133,.T.);
#200=EDGE_CURVE('',#162,#160,#134,.T.);
#201=EDGE_CURVE('',#161,#162,#94,.T.);
#202=EDGE_CURVE('',#163,#161,#95,.T.);
#203=EDGE_CURVE('',#164,#162,#96,.T.);
#204=EDGE_CURVE('',#163,#164,#97,.T.);
#205=EDGE_CURVE('',#146,#163,#135,.T.);
#206=EDGE_CURVE('',#147,#164,#136,.T.);
#207=ORIENTED_EDGE('',*,*,#165,.F.);
#208=ORIENTED_EDGE('',*,*,#166,.T.);
#209=ORIENTED_EDGE('',*,*,#167,.F.);
#210=ORIENTED_EDGE('',*,*,#166,.F.);
#211=ORIENTED_EDGE('',*,*,#168,.F.);
#212=ORIENTED_EDGE('',*,*,#169,.T.);
#213=ORIENTED_EDGE('',*,*,#170,.F.);
#214=ORIENTED_EDGE('',*,*,#169,.F.);
#215=ORIENTED_EDGE('',*,*,#171,.F.);
#216=ORIENTED_EDGE('',*,*,#172,.F.);
#217=ORIENTED_EDGE('',*,*,#173,.F.);
#218=ORIENTED_EDGE('',*,*,#174,.F.);
#219=ORIENTED_EDGE('',*,*,#175,.F.);
#220=ORIENTED_EDGE('',*,*,#172,.T.);
#221=ORIENTED_EDGE('',*,*,#176,.T.);
#222=ORIENTED_EDGE('',*,*,#177,.T.);
#223=ORIENTED_EDGE('',*,*,#178,.F.);
#224=ORIENTED_EDGE('',*,*,#179,.F.);
#225=ORIENTED_EDGE('',*,*,#173,.T.);
#226=ORIENTED_EDGE('',*,*,#171,.T.);
#227=ORIENTED_EDGE('',*,*,#175,.T.);
#228=ORIENTED_EDGE('',*,*,#180,.T.);
#229=ORIENTED_EDGE('',*,*,#181,.T.);
#230=ORIENTED_EDGE('',*,*,#182,.F.);
#231=ORIENTED_EDGE('',*,*,#183,.T.);
#232=ORIENTED_EDGE('',*,*,#180,.F.);
#233=ORIENTED_EDGE('',*,*,#174,.T.);
#234=ORIENTED_EDGE('',*,*,#181,.F.);
#235=ORIENTED_EDGE('',*,*,#183,.F.);
#236=ORIENTED_EDGE('',*,*,#184,.T.);
#237=ORIENTED_EDGE('',*,*,#179,.T.);
#238=ORIENTED_EDGE('',*,*,#185,.F.);
#239=ORIENTED_EDGE('',*,*,#186,.F.);
#240=ORIENTED_EDGE('',*,*,#187,.F.);
#241=ORIENTED_EDGE('',*,*,#186,.T.);
#242=ORIENTED_EDGE('',*,*,#188,.F.);
#243=ORIENTED_EDGE('',*,*,#189,.F.);
#244=ORIENTED_EDGE('',*,*,#190,.T.);
#245=ORIENTED_EDGE('',*,*,#189,.T.);
#246=ORIENTED_EDGE('',*,*,#191,.F.);
#247=ORIENTED_EDGE('',*,*,#192,.F.);
#248=ORIENTED_EDGE('',*,*,#182,.T.);
#249=ORIENTED_EDGE('',*,*,#193,.T.);
#250=ORIENTED_EDGE('',*,*,#192,.T.);
#251=ORIENTED_EDGE('',*,*,#194,.F.);
#252=ORIENTED_EDGE('',*,*,#195,.F.);
#253=ORIENTED_EDGE('',*,*,#165,.T.);
#254=ORIENTED_EDGE('',*,*,#168,.T.);
#255=ORIENTED_EDGE('',*,*,#196,.T.);
#256=ORIENTED_EDGE('',*,*,#195,.T.);
#257=ORIENTED_EDGE('',*,*,#197,.F.);
#258=ORIENTED_EDGE('',*,*,#198,.F.);
#259=ORIENTED_EDGE('',*,*,#199,.F.);
#260=ORIENTED_EDGE('',*,*,#198,.T.);
#261=ORIENTED_EDGE('',*,*,#200,.F.);
#262=ORIENTED_EDGE('',*,*,#201,.F.);
#263=ORIENTED_EDGE('',*,*,#202,.T.);
#264=ORIENTED_EDGE('',*,*,#201,.T.);
#265=ORIENTED_EDGE('',*,*,#203,.F.);
#266=ORIENTED_EDGE('',*,*,#204,.F.);
#267=ORIENTED_EDGE('',*,*,#167,.T.);
#268=ORIENTED_EDGE('',*,*,#170,.T.);
#269=ORIENTED_EDGE('',*,*,#205,.T.);
#270=ORIENTED_EDGE('',*,*,#204,.T.);
#271=ORIENTED_EDGE('',*,*,#206,.F.);
#272=ORIENTED_EDGE('',*,*,#177,.F.);
#273=ORIENTED_EDGE('',*,*,#178,.T.);
#274=ORIENTED_EDGE('',*,*,#206,.T.);
#275=ORIENTED_EDGE('',*,*,#203,.T.);
#276=ORIENTED_EDGE('',*,*,#200,.T.);
#277=ORIENTED_EDGE('',*,*,#197,.T.);
#278=ORIENTED_EDGE('',*,*,#194,.T.);
#279=ORIENTED_EDGE('',*,*,#191,.T.);
#280=ORIENTED_EDGE('',*,*,#188,.T.);
#281=ORIENTED_EDGE('',*,*,#185,.T.);
#282=ORIENTED_EDGE('',*,*,#176,.F.);
#283=ORIENTED_EDGE('',*,*,#184,.F.);
#284=ORIENTED_EDGE('',*,*,#187,.T.);
#285=ORIENTED_EDGE('',*,*,#190,.F.);
#286=ORIENTED_EDGE('',*,*,#193,.F.);
#287=ORIENTED_EDGE('',*,*,#196,.F.);
#288=ORIENTED_EDGE('',*,*,#199,.T.);
#289=ORIENTED_EDGE('',*,*,#202,.F.);
#290=ORIENTED_EDGE('',*,*,#205,.F.);
#291=CYLINDRICAL_SURFACE('',#316,3.25);
#292=CYLINDRICAL_SURFACE('',#319,3.25);
#293=CYLINDRICAL_SURFACE('',#322,14.);
#294=CYLINDRICAL_SURFACE('',#330,6.5);
#295=CYLINDRICAL_SURFACE('',#332,3.);
#296=CYLINDRICAL_SURFACE('',#339,4.00000000000003);
#297=CYLINDRICAL_SURFACE('',#343,3.00000000000003);
#298=ADVANCED_FACE('',(#34),#291,.F.);
#299=ADVANCED_FACE('',(#35),#292,.F.);
#300=ADVANCED_FACE('',(#36),#293,.F.);
#301=ADVANCED_FACE('',(#37),#22,.T.);
#302=ADVANCED_FACE('',(#38,#16),#23,.T.);
#303=ADVANCED_FACE('',(#39),#294,.F.);
#304=ADVANCED_FACE('',(#40),#295,.T.);
#305=ADVANCED_FACE('',(#41),#24,.T.);
#306=ADVANCED_FACE('',(#42,#17),#25,.T.);
#307=ADVANCED_FACE('',(#43,#18,#19),#26,.T.);
#308=ADVANCED_FACE('',(#44),#27,.T.);
#309=ADVANCED_FACE('',(#45),#296,.T.);
#310=ADVANCED_FACE('',(#46,#20,#21),#28,.T.);
#311=ADVANCED_FACE('',(#47),#297,.F.);
#312=ADVANCED_FACE('',(#48),#29,.F.);
#313=ADVANCED_FACE('',(#49),#30,.T.);
#314=CLOSED_SHELL('',(#298,#299,#300,#301,#302,#303,#304,#305,#306,#307,
#308,#309,#310,#311,#312,#313));
#315=AXIS2_PLACEMENT_3D('placement',#440,#348,#349);
#316=AXIS2_PLACEMENT_3D('',#441,#350,#351);
#317=AXIS2_PLACEMENT_3D('',#443,#352,#353);
#318=AXIS2_PLACEMENT_3D('',#446,#355,#356);
#319=AXIS2_PLACEMENT_3D('',#447,#357,#358);
#320=AXIS2_PLACEMENT_3D('',#449,#359,#360);
#321=AXIS2_PLACEMENT_3D('',#452,#362,#363);
#322=AXIS2_PLACEMENT_3D('',#453,#364,#365);
#323=AXIS2_PLACEMENT_3D('',#456,#366,#367);
#324=AXIS2_PLACEMENT_3D('',#457,#368,#369);
#325=AXIS2_PLACEMENT_3D('',#458,#370,#371);
#326=AXIS2_PLACEMENT_3D('',#462,#373,#374);
#327=AXIS2_PLACEMENT_3D('',#464,#376,#377);
#328=AXIS2_PLACEMENT_3D('',#474,#382,#383);
#329=AXIS2_PLACEMENT_3D('',#475,#384,#385);
#330=AXIS2_PLACEMENT_3D('',#476,#386,#387);
#331=AXIS2_PLACEMENT_3D('',#478,#388,#389);
#332=AXIS2_PLACEMENT_3D('',#480,#391,#392);
#333=AXIS2_PLACEMENT_3D('',#482,#393,#394);
#334=AXIS2_PLACEMENT_3D('',#484,#395,#396);
#335=AXIS2_PLACEMENT_3D('',#486,#398,#399);
#336=AXIS2_PLACEMENT_3D('',#492,#403,#404);
#337=AXIS2_PLACEMENT_3D('',#498,#408,#409);
#338=AXIS2_PLACEMENT_3D('',#504,#413,#414);
#339=AXIS2_PLACEMENT_3D('',#510,#418,#419);
#340=AXIS2_PLACEMENT_3D('',#512,#420,#421);
#341=AXIS2_PLACEMENT_3D('',#514,#422,#423);
#342=AXIS2_PLACEMENT_3D('',#516,#425,#426);
#343=AXIS2_PLACEMENT_3D('',#522,#430,#431);
#344=AXIS2_PLACEMENT_3D('',#523,#432,#433);
#345=AXIS2_PLACEMENT_3D('',#524,#434,#435);
#346=AXIS2_PLACEMENT_3D('',#525,#436,#437);
#347=AXIS2_PLACEMENT_3D('',#526,#438,#439);
#348=DIRECTION('axis',(0.,0.,1.));
#349=DIRECTION('refdir',(1.,0.,0.));
#350=DIRECTION('center_axis',(1.,0.,0.));
#351=DIRECTION('ref_axis',(0.,-1.,0.));
#352=DIRECTION('center_axis',(1.,0.,0.));
#353=DIRECTION('ref_axis',(0.,-1.,0.));
#354=DIRECTION('',(1.,0.,0.));
#355=DIRECTION('center_axis',(-1.,-7.07089785445561E-33,-2.38833697068759E-16));
#356=DIRECTION('ref_axis',(0.,-1.,0.));
#357=DIRECTION('center_axis',(1.,0.,0.));
#358=DIRECTION('ref_axis',(0.,-1.,0.));
#359=DIRECTION('center_axis',(1.,0.,0.));
#360=DIRECTION('ref_axis',(0.,-1.,0.));
#361=DIRECTION('',(1.,0.,0.));
#362=DIRECTION('center_axis',(-1.,-7.07089785445561E-33,-2.38833697068759E-16));
#363=DIRECTION('ref_axis',(0.,-1.,0.));
#364=DIRECTION('center_axis',(0.,0.,1.));
#365=DIRECTION('ref_axis',(-1.,0.,0.));
#366=DIRECTION('center_axis',(-0.194445739106199,-2.90408667706297E-17,
-0.980913275750432));
#367=DIRECTION('ref_axis',(-0.980913275750432,0.,0.194445739106199));
#368=DIRECTION('center_axis',(0.,0.,1.));
#369=DIRECTION('ref_axis',(-1.,0.,0.));
#370=DIRECTION('center_axis',(0.,0.,1.));
#371=DIRECTION('ref_axis',(1.,0.,0.));
#372=DIRECTION('',(1.4935203468135E-16,-1.,0.));
#373=DIRECTION('center_axis',(0.,0.,1.));
#374=DIRECTION('ref_axis',(-1.,0.,0.));
#375=DIRECTION('',(1.4935203468135E-16,-1.,0.));
#376=DIRECTION('center_axis',(0.194445739106199,2.90408667706297E-17,0.980913275750432));
#377=DIRECTION('ref_axis',(-0.980913275750433,-3.11203502006179E-16,0.194445739106199));
#378=DIRECTION('',(-0.980913275750433,-3.11203502006179E-16,0.194445739106199));
#379=DIRECTION('',(0.,-1.,2.96059473233375E-17));
#380=DIRECTION('',(-0.980913275750433,-3.11203502006179E-16,0.194445739106199));
#381=DIRECTION('',(0.,-1.,2.96059473233375E-17));
#382=DIRECTION('center_axis',(-0.194445739106199,-2.90408667706297E-17,
-0.980913275750432));
#383=DIRECTION('ref_axis',(-0.980913275750432,0.,0.194445739106199));
#384=DIRECTION('center_axis',(-0.194445739106199,-2.90408667706297E-17,
-0.980913275750432));
#385=DIRECTION('ref_axis',(-0.980913275750432,0.,0.194445739106199));
#386=DIRECTION('center_axis',(0.,0.,1.));
#387=DIRECTION('ref_axis',(-1.,0.,0.));
#388=DIRECTION('center_axis',(0.,2.96059473233375E-17,1.));
#389=DIRECTION('ref_axis',(-1.,0.,0.));
#390=DIRECTION('',(0.,0.,1.));
#391=DIRECTION('center_axis',(0.,-1.,2.96059473233375E-17));
#392=DIRECTION('ref_axis',(1.,0.,3.40468394218381E-15));
#393=DIRECTION('center_axis',(2.08494385518077E-14,-1.,7.46391256004066E-15));
#394=DIRECTION('ref_axis',(1.,1.8947806286936E-14,3.40468394218381E-15));
#395=DIRECTION('center_axis',(2.08494385518077E-14,-1.,7.46391256004066E-15));
#396=DIRECTION('ref_axis',(1.,1.8947806286936E-14,3.40468394218381E-15));
#397=DIRECTION('',(0.,-1.,2.96059473233375E-17));
#398=DIRECTION('center_axis',(1.,0.,0.));
#399=DIRECTION('ref_axis',(0.,6.51937525873555E-15,1.));
#400=DIRECTION('',(0.,-6.51937525873555E-15,-1.));
#401=DIRECTION('',(0.,6.51937525873555E-15,1.));
#402=DIRECTION('',(0.,-1.,2.96059473233375E-17));
#403=DIRECTION('center_axis',(0.,-2.96059473233375E-17,-1.));
#404=DIRECTION('ref_axis',(1.,0.,0.));
#405=DIRECTION('',(1.,0.,0.));
#406=DIRECTION('',(1.,0.,0.));
#407=DIRECTION('',(0.,-1.,2.96059473233375E-17));
#408=DIRECTION('center_axis',(-1.,0.,0.));
#409=DIRECTION('ref_axis',(0.,0.,-1.));
#410=DIRECTION('',(0.,0.,-1.));
#411=DIRECTION('',(0.,0.,-1.));
#412=DIRECTION('',(0.,-1.,2.96059473233375E-17));
#413=DIRECTION('center_axis',(0.,2.96059473233375E-17,1.));
#414=DIRECTION('ref_axis',(-1.,0.,0.));
#415=DIRECTION('',(-1.,0.,0.));
#416=DIRECTION('',(-1.,0.,0.));
#417=DIRECTION('',(0.,-1.,2.96059473233375E-17));
#418=DIRECTION('center_axis',(0.,-1.,2.96059473233375E-17));
#419=DIRECTION('ref_axis',(7.10542735760095E-15,2.96059473233375E-17,1.));
#420=DIRECTION('center_axis',(0.,1.,0.));
#421=DIRECTION('ref_axis',(7.10542735760095E-15,0.,1.));
#422=DIRECTION('center_axis',(0.,-1.,0.));
#423=DIRECTION('ref_axis',(7.10542735760095E-15,0.,1.));
#424=DIRECTION('',(0.,-1.,2.96059473233375E-17));
#425=DIRECTION('center_axis',(1.,7.07089785445561E-33,2.38833697068759E-16));
#426=DIRECTION('ref_axis',(-2.38833697068759E-16,0.,1.));
#427=DIRECTION('',(-2.38833697068759E-16,0.,1.));
#428=DIRECTION('',(-2.38833697068759E-16,0.,1.));
#429=DIRECTION('',(0.,-1.,2.96059473233375E-17));
#430=DIRECTION('center_axis',(0.,-1.,2.96059473233375E-17));
#431=DIRECTION('ref_axis',(-0.06975647374413,-2.95338287236476E-17,-0.997564050259824));
#432=DIRECTION('center_axis',(0.,1.,0.));
#433=DIRECTION('ref_axis',(-0.06975647374413,0.,-0.997564050259824));
#434=DIRECTION('center_axis',(0.,1.,0.));
#435=DIRECTION('ref_axis',(-0.06975647374413,0.,-0.997564050259824));
#436=DIRECTION('center_axis',(-1.91149588668628E-15,1.,-1.40478340579476E-15));
#437=DIRECTION('ref_axis',(0.,1.40478340579476E-15,1.));
#438=DIRECTION('center_axis',(-1.91149588668628E-15,1.,-1.40478340579476E-15));
#439=DIRECTION('ref_axis',(0.,1.40478340579476E-15,1.));
#440=CARTESIAN_POINT('',(0.,0.,0.));
#441=CARTESIAN_POINT('Origin',(-52.4794957771389,0.,120.));
#442=CARTESIAN_POINT('',(0.,3.25,120.));
#443=CARTESIAN_POINT('Origin',(0.,0.,120.));
#444=CARTESIAN_POINT('',(6.00000000000003,3.25,120.));
#445=CARTESIAN_POINT('',(-52.4794957771389,3.25,120.));
#446=CARTESIAN_POINT('Origin',(6.00000000000003,0.,120.));
#447=CARTESIAN_POINT('Origin',(-52.4794957771389,0.,80.));
#448=CARTESIAN_POINT('',(0.,3.25,80.));
#449=CARTESIAN_POINT('Origin',(0.,0.,80.));
#450=CARTESIAN_POINT('',(6.00000000000003,3.25,80.));
#451=CARTESIAN_POINT('',(-52.4794957771389,3.25,80.));
#452=CARTESIAN_POINT('Origin',(6.00000000000003,0.,80.));
#453=CARTESIAN_POINT('Origin',(34.,0.,8.));
#454=CARTESIAN_POINT('',(39.0674581109341,-13.0507037470754,8.));
#455=CARTESIAN_POINT('',(39.0674581109341,13.0507037470754,8.));
#456=CARTESIAN_POINT('Origin',(34.,0.,9.00451860743393));
#457=CARTESIAN_POINT('Origin',(34.,0.,8.));
#458=CARTESIAN_POINT('Origin',(34.,0.,8.));
#459=CARTESIAN_POINT('',(39.0674581109341,-4.07073313961112,8.));
#460=CARTESIAN_POINT('',(39.0674581109341,7.50000000000001,8.));
#461=CARTESIAN_POINT('',(39.0674581109341,4.07073313961114,8.));
#462=CARTESIAN_POINT('Origin',(34.,0.,8.));
#463=CARTESIAN_POINT('',(39.0674581109341,7.50000000000001,8.));
#464=CARTESIAN_POINT('Origin',(53.5833372173186,15.,5.12252763685166));
#465=CARTESIAN_POINT('',(53.5833372173186,15.,5.12252763685166));
#466=CARTESIAN_POINT('',(8.79073057876764,15.,14.0017341066214));
#467=CARTESIAN_POINT('',(53.5833372173186,15.,5.12252763685166));
#468=CARTESIAN_POINT('',(8.79073057876764,-15.,14.0017341066214));
#469=CARTESIAN_POINT('',(8.79073057876764,15.,14.0017341066214));
#470=CARTESIAN_POINT('',(53.5833372173186,-15.,5.12252763685166));
#471=CARTESIAN_POINT('',(53.5833372173186,-15.,5.12252763685166));
#472=CARTESIAN_POINT('',(53.5833372173186,15.,5.12252763685166));
#473=CARTESIAN_POINT('',(40.5,0.,7.71602824295867));
#474=CARTESIAN_POINT('Origin',(34.,0.,9.00451860743393));
#475=CARTESIAN_POINT('Origin',(34.,0.,9.00451860743393));
#476=CARTESIAN_POINT('Origin',(34.,0.,-7.81607612816515));
#477=CARTESIAN_POINT('',(40.5,0.,-4.44089209850063E-16));
#478=CARTESIAN_POINT('Origin',(34.,0.,-4.44089209850063E-16));
#479=CARTESIAN_POINT('',(40.5,0.,-7.81607612816515));
#480=CARTESIAN_POINT('Origin',(53.,15.,2.17978780960036));
#481=CARTESIAN_POINT('',(56.,15.,2.17978780960037));
#482=CARTESIAN_POINT('Origin',(53.,15.,2.17978780960036));
#483=CARTESIAN_POINT('',(56.,-15.,2.17978780960037));
#484=CARTESIAN_POINT('Origin',(53.,-15.,2.17978780960036));
#485=CARTESIAN_POINT('',(56.,15.,2.17978780960037));
#486=CARTESIAN_POINT('Origin',(56.,15.,-4.44089209850063E-16));
#487=CARTESIAN_POINT('',(56.,15.,-4.44089209850063E-16));
#488=CARTESIAN_POINT('',(56.,15.,2.17978780960037));
#489=CARTESIAN_POINT('',(56.,-15.,4.44089209850063E-16));
#490=CARTESIAN_POINT('',(56.,-15.,2.17978780960037));
#491=CARTESIAN_POINT('',(56.,15.,-4.44089209850063E-16));
#492=CARTESIAN_POINT('Origin',(0.,15.,-4.44089209850063E-16));
#493=CARTESIAN_POINT('',(0.,15.,-4.44089209850063E-16));
#494=CARTESIAN_POINT('',(0.,15.,-4.44089209850063E-16));
#495=CARTESIAN_POINT('',(0.,-15.,4.44089209850063E-16));
#496=CARTESIAN_POINT('',(0.,-15.,4.44089209850063E-16));
#497=CARTESIAN_POINT('',(0.,15.,-4.44089209850063E-16));
#498=CARTESIAN_POINT('Origin',(0.,15.,139.996517583825));
#499=CARTESIAN_POINT('',(0.,15.,139.996517583825));
#500=CARTESIAN_POINT('',(0.,15.,139.996517583825));
#501=CARTESIAN_POINT('',(0.,-15.,139.996517583825));
#502=CARTESIAN_POINT('',(0.,-15.,139.996517583825));
#503=CARTESIAN_POINT('',(0.,15.,139.996517583825));
#504=CARTESIAN_POINT('Origin',(2.,15.,139.996517583825));
#505=CARTESIAN_POINT('',(2.,15.,139.996517583825));
#506=CARTESIAN_POINT('',(2.,15.,139.996517583825));
#507=CARTESIAN_POINT('',(2.,-15.,139.996517583825));
#508=CARTESIAN_POINT('',(2.,-15.,139.996517583825));
#509=CARTESIAN_POINT('',(2.,15.,139.996517583825));
#510=CARTESIAN_POINT('Origin',(1.99999999999997,15.,135.996517583825));
#511=CARTESIAN_POINT('',(6.,15.,135.996517583825));
#512=CARTESIAN_POINT('Origin',(1.99999999999997,15.,135.996517583825));
#513=CARTESIAN_POINT('',(6.,-15.,135.996517583825));
#514=CARTESIAN_POINT('Origin',(1.99999999999997,-15.,135.996517583825));
#515=CARTESIAN_POINT('',(6.,15.,135.996517583825));
#516=CARTESIAN_POINT('Origin',(6.00000000000003,15.,16.9944262574009));
#517=CARTESIAN_POINT('',(6.,15.,16.9944262574009));
#518=CARTESIAN_POINT('',(6.00000000000003,15.,16.9944262574009));
#519=CARTESIAN_POINT('',(6.,-15.,16.9944262574009));
#520=CARTESIAN_POINT('',(6.00000000000003,-15.,16.9944262574009));
#521=CARTESIAN_POINT('',(6.,15.,16.9944262574009));
#522=CARTESIAN_POINT('Origin',(9.00000000000003,15.,16.9944262574009));
#523=CARTESIAN_POINT('Origin',(9.00000000000003,15.,16.9944262574009));
#524=CARTESIAN_POINT('Origin',(9.00000000000003,-15.,16.9944262574009));
#525=CARTESIAN_POINT('Origin',(10.7596225559054,-15.,54.0861670887662));
#526=CARTESIAN_POINT('Origin',(10.7596225559054,15.,54.0861670887662));
#527=UNCERTAINTY_MEASURE_WITH_UNIT(LENGTH_MEASURE(0.01),#531,
'DISTANCE_ACCURACY_VALUE',
'Maximum model space distance between geometric entities at asserted c
onnectivities');
#528=UNCERTAINTY_MEASURE_WITH_UNIT(LENGTH_MEASURE(0.01),#531,
'DISTANCE_ACCURACY_VALUE',
'Maximum model space distance between geometric entities at asserted c
onnectivities');
#529=(
GEOMETRIC_REPRESENTATION_CONTEXT(3)
GLOBAL_UNCERTAINTY_ASSIGNED_CONTEXT((#527))
GLOBAL_UNIT_ASSIGNED_CONTEXT((#531,#532,#533))
REPRESENTATION_CONTEXT('','3D')
);
#530=(
GEOMETRIC_REPRESENTATION_CONTEXT(3)
GLOBAL_UNCERTAINTY_ASSIGNED_CONTEXT((#528))
GLOBAL_UNIT_ASSIGNED_CONTEXT((#531,#532,#533))
REPRESENTATION_CONTEXT('','3D')
);
#531=(
LENGTH_UNIT()
NAMED_UNIT(*)
SI_UNIT(.MILLI.,.METRE.)
);
#532=(
NAMED_UNIT(*)
PLANE_ANGLE_UNIT()
SI_UNIT($,.RADIAN.)
);
#533=(
NAMED_UNIT(*)
SI_UNIT($,.STERADIAN.)
SOLID_ANGLE_UNIT()
);
#534=SHAPE_DEFINITION_REPRESENTATION(#535,#536);
#535=PRODUCT_DEFINITION_SHAPE('',$,#538);
#536=SHAPE_REPRESENTATION('',(#315),#529);
#537=PRODUCT_DEFINITION_CONTEXT('part definition',#542,'design');
#538=PRODUCT_DEFINITION('Product','Product',#539,#537);
#539=PRODUCT_DEFINITION_FORMATION('',$,#544);
#540=PRODUCT_RELATED_PRODUCT_CATEGORY('Product','Product',(#544));
#541=APPLICATION_PROTOCOL_DEFINITION('international standard',
'automotive_design',2009,#542);
#542=APPLICATION_CONTEXT(
'Core Data for Automotive Mechanical Design Process');
#543=PRODUCT_CONTEXT('part definition',#542,'mechanical');
#544=PRODUCT('Product','Product',$,(#543));
#545=PRESENTATION_STYLE_ASSIGNMENT((#546));
#546=SURFACE_STYLE_USAGE(.BOTH.,#547);
#547=SURFACE_SIDE_STYLE('',(#548));
#548=SURFACE_STYLE_FILL_AREA(#549);
#549=FILL_AREA_STYLE('',(#550));
#550=FILL_AREA_STYLE_COLOUR('',#551);
#551=COLOUR_RGB('',1.,1.,1.);
ENDSEC;
END-ISO-10303-21;
