ISO-10303-21;
HEADER;
/* Generated by software containing ST-Developer
 * from STEP Tools, Inc. (www.steptools.com) 
 */

FILE_DESCRIPTION(
/* description */ (''),
/* implementation_level */ '2;1');

FILE_NAME(
/* name */ 
'\\\\FLOTRONICS-SQL\\User Shared Folders\\Modular Solution\\A-Profile 
System\\Parts\\40 Series\\41-110\\41-110-0.stp',
/* time_stamp */ '2024-04-22T08:19:06-04:00',
/* author */ ('jmurphy'),
/* organization */ (''),
/* preprocessor_version */ 'ST-DEVELOPER v18.1',
/* originating_system */ 'AutoCAD Mechanical',
/* authorisation */ '');

FILE_SCHEMA (('AUTOMOTIVE_DESIGN { 1 0 10303 214 3 1 1 }'));
ENDSEC;

DATA;
#10=MECHANICAL_DESIGN_GEOMETRIC_PRESENTATION_REPRESENTATION('',(#14),#554);
#11=PRESENTATION_LAYER_ASSIGNMENT('0','0',(#15));
#12=SHAPE_REPRESENTATION_RELATIONSHIP('SRR','None',#560,#13);
#13=ADVANCED_BREP_SHAPE_REPRESENTATION('',(#15),#553);
#14=STYLED_ITEM('',(#569),#15);
#15=MANIFOLD_SOLID_BREP('5F782',#318);
#16=FACE_BOUND('',#63,.T.);
#17=FACE_BOUND('',#64,.T.);
#18=FACE_BOUND('',#72,.T.);
#19=FACE_BOUND('',#73,.T.);
#20=PLANE('',#342);
#21=PLANE('',#345);
#22=PLANE('',#346);
#23=PLANE('',#349);
#24=PLANE('',#350);
#25=PLANE('',#359);
#26=SPHERICAL_SURFACE('',#329,2.5);
#27=SPHERICAL_SURFACE('',#334,2.5);
#28=SPHERICAL_SURFACE('',#336,2.5);
#29=SPHERICAL_SURFACE('',#338,2.5);
#30=FACE_OUTER_BOUND('',#50,.T.);
#31=FACE_OUTER_BOUND('',#51,.T.);
#32=FACE_OUTER_BOUND('',#52,.T.);
#33=FACE_OUTER_BOUND('',#53,.T.);
#34=FACE_OUTER_BOUND('',#54,.T.);
#35=FACE_OUTER_BOUND('',#55,.T.);
#36=FACE_OUTER_BOUND('',#56,.T.);
#37=FACE_OUTER_BOUND('',#57,.T.);
#38=FACE_OUTER_BOUND('',#58,.T.);
#39=FACE_OUTER_BOUND('',#59,.T.);
#40=FACE_OUTER_BOUND('',#60,.T.);
#41=FACE_OUTER_BOUND('',#61,.T.);
#42=FACE_OUTER_BOUND('',#62,.T.);
#43=FACE_OUTER_BOUND('',#65,.T.);
#44=FACE_OUTER_BOUND('',#66,.T.);
#45=FACE_OUTER_BOUND('',#67,.T.);
#46=FACE_OUTER_BOUND('',#68,.T.);
#47=FACE_OUTER_BOUND('',#69,.T.);
#48=FACE_OUTER_BOUND('',#70,.T.);
#49=FACE_OUTER_BOUND('',#71,.T.);
#50=EDGE_LOOP('',(#204,#205,#206,#207));
#51=EDGE_LOOP('',(#208,#209,#210,#211));
#52=EDGE_LOOP('',(#212,#213,#214,#215));
#53=EDGE_LOOP('',(#216,#217,#218));
#54=EDGE_LOOP('',(#219,#220,#221,#222));
#55=EDGE_LOOP('',(#223,#224,#225));
#56=EDGE_LOOP('',(#226,#227,#228));
#57=EDGE_LOOP('',(#229,#230,#231));
#58=EDGE_LOOP('',(#232,#233,#234,#235));
#59=EDGE_LOOP('',(#236,#237,#238,#239));
#60=EDGE_LOOP('',(#240,#241,#242,#243));
#61=EDGE_LOOP('',(#244,#245,#246,#247));
#62=EDGE_LOOP('',(#248,#249,#250,#251));
#63=EDGE_LOOP('',(#252));
#64=EDGE_LOOP('',(#253));
#65=EDGE_LOOP('',(#254,#255,#256,#257));
#66=EDGE_LOOP('',(#258,#259,#260,#261));
#67=EDGE_LOOP('',(#262,#263,#264,#265));
#68=EDGE_LOOP('',(#266,#267,#268,#269));
#69=EDGE_LOOP('',(#270,#271,#272,#273));
#70=EDGE_LOOP('',(#274,#275,#276,#277));
#71=EDGE_LOOP('',(#278,#279,#280,#281,#282,#283,#284,#285));
#72=EDGE_LOOP('',(#286));
#73=EDGE_LOOP('',(#287));
#74=LINE('',#470,#96);
#75=LINE('',#473,#97);
#76=LINE('',#478,#98);
#77=LINE('',#481,#99);
#78=LINE('',#486,#100);
#79=LINE('',#489,#101);
#80=LINE('',#496,#102);
#81=LINE('',#498,#103);
#82=LINE('',#507,#104);
#83=LINE('',#510,#105);
#84=LINE('',#513,#106);
#85=LINE('',#514,#107);
#86=LINE('',#517,#108);
#87=LINE('',#521,#109);
#88=LINE('',#522,#110);
#89=LINE('',#530,#111);
#90=LINE('',#532,#112);
#91=LINE('',#533,#113);
#92=LINE('',#536,#114);
#93=LINE('',#537,#115);
#94=LINE('',#540,#116);
#95=LINE('',#544,#117);
#96=VECTOR('',#366,1.);
#97=VECTOR('',#369,1.);
#98=VECTOR('',#374,1.);
#99=VECTOR('',#377,1.);
#100=VECTOR('',#382,1.);
#101=VECTOR('',#385,1.);
#102=VECTOR('',#394,1.);
#103=VECTOR('',#397,1.);
#104=VECTOR('',#412,1.);
#105=VECTOR('',#415,1.);
#106=VECTOR('',#418,1.);
#107=VECTOR('',#419,1.);
#108=VECTOR('',#422,1.);
#109=VECTOR('',#427,1.);
#110=VECTOR('',#428,1.);
#111=VECTOR('',#437,1.);
#112=VECTOR('',#438,1.);
#113=VECTOR('',#439,1.);
#114=VECTOR('',#442,1.);
#115=VECTOR('',#443,1.);
#116=VECTOR('',#446,4.5);
#117=VECTOR('',#451,4.5);
#118=CIRCLE('',#321,2.5);
#119=CIRCLE('',#322,2.5);
#120=CIRCLE('',#324,2.5);
#121=CIRCLE('',#325,2.5);
#122=CIRCLE('',#327,2.5);
#123=CIRCLE('',#328,2.5);
#124=CIRCLE('',#330,2.49999999999909);
#125=CIRCLE('',#332,2.5);
#126=CIRCLE('',#333,2.5);
#127=CIRCLE('',#335,2.49999999999909);
#128=CIRCLE('',#337,2.49999999999909);
#129=CIRCLE('',#339,2.49999999999909);
#130=CIRCLE('',#341,2.49999999999909);
#131=CIRCLE('',#344,2.49999999999909);
#132=CIRCLE('',#347,4.5);
#133=CIRCLE('',#348,4.5);
#134=CIRCLE('',#352,4.5);
#135=CIRCLE('',#354,4.5);
#136=CIRCLE('',#356,2.49999999999909);
#137=CIRCLE('',#358,2.49999999999909);
#138=VERTEX_POINT('',#466);
#139=VERTEX_POINT('',#467);
#140=VERTEX_POINT('',#469);
#141=VERTEX_POINT('',#471);
#142=VERTEX_POINT('',#475);
#143=VERTEX_POINT('',#477);
#144=VERTEX_POINT('',#479);
#145=VERTEX_POINT('',#483);
#146=VERTEX_POINT('',#485);
#147=VERTEX_POINT('',#487);
#148=VERTEX_POINT('',#493);
#149=VERTEX_POINT('',#495);
#150=VERTEX_POINT('',#506);
#151=VERTEX_POINT('',#508);
#152=VERTEX_POINT('',#512);
#153=VERTEX_POINT('',#516);
#154=VERTEX_POINT('',#520);
#155=VERTEX_POINT('',#524);
#156=VERTEX_POINT('',#526);
#157=VERTEX_POINT('',#529);
#158=VERTEX_POINT('',#531);
#159=VERTEX_POINT('',#535);
#160=VERTEX_POINT('',#539);
#161=VERTEX_POINT('',#543);
#162=EDGE_CURVE('',#138,#139,#118,.T.);
#163=EDGE_CURVE('',#139,#140,#74,.T.);
#164=EDGE_CURVE('',#140,#141,#119,.T.);
#165=EDGE_CURVE('',#141,#138,#75,.T.);
#166=EDGE_CURVE('',#141,#142,#120,.T.);
#167=EDGE_CURVE('',#142,#143,#76,.T.);
#168=EDGE_CURVE('',#143,#144,#121,.T.);
#169=EDGE_CURVE('',#144,#141,#77,.T.);
#170=EDGE_CURVE('',#144,#145,#122,.T.);
#171=EDGE_CURVE('',#145,#146,#78,.T.);
#172=EDGE_CURVE('',#146,#147,#123,.T.);
#173=EDGE_CURVE('',#147,#144,#79,.T.);
#174=EDGE_CURVE('',#143,#145,#124,.T.);
#175=EDGE_CURVE('',#147,#148,#125,.T.);
#176=EDGE_CURVE('',#148,#149,#80,.T.);
#177=EDGE_CURVE('',#149,#138,#126,.T.);
#178=EDGE_CURVE('',#138,#147,#81,.T.);
#179=EDGE_CURVE('',#146,#148,#127,.T.);
#180=EDGE_CURVE('',#140,#142,#128,.T.);
#181=EDGE_CURVE('',#149,#139,#129,.T.);
#182=EDGE_CURVE('',#140,#150,#82,.T.);
#183=EDGE_CURVE('',#150,#151,#130,.T.);
#184=EDGE_CURVE('',#142,#151,#83,.T.);
#185=EDGE_CURVE('',#139,#152,#84,.T.);
#186=EDGE_CURVE('',#152,#150,#85,.T.);
#187=EDGE_CURVE('',#149,#153,#86,.T.);
#188=EDGE_CURVE('',#153,#152,#131,.T.);
#189=EDGE_CURVE('',#154,#148,#87,.T.);
#190=EDGE_CURVE('',#154,#153,#88,.T.);
#191=EDGE_CURVE('',#155,#155,#132,.T.);
#192=EDGE_CURVE('',#156,#156,#133,.T.);
#193=EDGE_CURVE('',#157,#145,#89,.T.);
#194=EDGE_CURVE('',#157,#158,#90,.T.);
#195=EDGE_CURVE('',#158,#146,#91,.T.);
#196=EDGE_CURVE('',#151,#159,#92,.T.);
#197=EDGE_CURVE('',#159,#143,#93,.T.);
#198=EDGE_CURVE('',#156,#160,#94,.T.);
#199=EDGE_CURVE('',#160,#160,#134,.T.);
#200=EDGE_CURVE('',#155,#161,#95,.T.);
#201=EDGE_CURVE('',#161,#161,#135,.T.);
#202=EDGE_CURVE('',#158,#154,#136,.T.);
#203=EDGE_CURVE('',#159,#157,#137,.T.);
#204=ORIENTED_EDGE('',*,*,#162,.T.);
#205=ORIENTED_EDGE('',*,*,#163,.T.);
#206=ORIENTED_EDGE('',*,*,#164,.T.);
#207=ORIENTED_EDGE('',*,*,#165,.T.);
#208=ORIENTED_EDGE('',*,*,#166,.T.);
#209=ORIENTED_EDGE('',*,*,#167,.T.);
#210=ORIENTED_EDGE('',*,*,#168,.T.);
#211=ORIENTED_EDGE('',*,*,#169,.T.);
#212=ORIENTED_EDGE('',*,*,#170,.T.);
#213=ORIENTED_EDGE('',*,*,#171,.T.);
#214=ORIENTED_EDGE('',*,*,#172,.T.);
#215=ORIENTED_EDGE('',*,*,#173,.T.);
#216=ORIENTED_EDGE('',*,*,#170,.F.);
#217=ORIENTED_EDGE('',*,*,#168,.F.);
#218=ORIENTED_EDGE('',*,*,#174,.T.);
#219=ORIENTED_EDGE('',*,*,#175,.T.);
#220=ORIENTED_EDGE('',*,*,#176,.T.);
#221=ORIENTED_EDGE('',*,*,#177,.T.);
#222=ORIENTED_EDGE('',*,*,#178,.T.);
#223=ORIENTED_EDGE('',*,*,#175,.F.);
#224=ORIENTED_EDGE('',*,*,#172,.F.);
#225=ORIENTED_EDGE('',*,*,#179,.T.);
#226=ORIENTED_EDGE('',*,*,#166,.F.);
#227=ORIENTED_EDGE('',*,*,#164,.F.);
#228=ORIENTED_EDGE('',*,*,#180,.T.);
#229=ORIENTED_EDGE('',*,*,#162,.F.);
#230=ORIENTED_EDGE('',*,*,#177,.F.);
#231=ORIENTED_EDGE('',*,*,#181,.T.);
#232=ORIENTED_EDGE('',*,*,#180,.F.);
#233=ORIENTED_EDGE('',*,*,#182,.T.);
#234=ORIENTED_EDGE('',*,*,#183,.T.);
#235=ORIENTED_EDGE('',*,*,#184,.F.);
#236=ORIENTED_EDGE('',*,*,#163,.F.);
#237=ORIENTED_EDGE('',*,*,#185,.T.);
#238=ORIENTED_EDGE('',*,*,#186,.T.);
#239=ORIENTED_EDGE('',*,*,#182,.F.);
#240=ORIENTED_EDGE('',*,*,#181,.F.);
#241=ORIENTED_EDGE('',*,*,#187,.T.);
#242=ORIENTED_EDGE('',*,*,#188,.T.);
#243=ORIENTED_EDGE('',*,*,#185,.F.);
#244=ORIENTED_EDGE('',*,*,#176,.F.);
#245=ORIENTED_EDGE('',*,*,#189,.F.);
#246=ORIENTED_EDGE('',*,*,#190,.T.);
#247=ORIENTED_EDGE('',*,*,#187,.F.);
#248=ORIENTED_EDGE('',*,*,#165,.F.);
#249=ORIENTED_EDGE('',*,*,#169,.F.);
#250=ORIENTED_EDGE('',*,*,#173,.F.);
#251=ORIENTED_EDGE('',*,*,#178,.F.);
#252=ORIENTED_EDGE('',*,*,#191,.T.);
#253=ORIENTED_EDGE('',*,*,#192,.T.);
#254=ORIENTED_EDGE('',*,*,#171,.F.);
#255=ORIENTED_EDGE('',*,*,#193,.F.);
#256=ORIENTED_EDGE('',*,*,#194,.T.);
#257=ORIENTED_EDGE('',*,*,#195,.T.);
#258=ORIENTED_EDGE('',*,*,#167,.F.);
#259=ORIENTED_EDGE('',*,*,#184,.T.);
#260=ORIENTED_EDGE('',*,*,#196,.T.);
#261=ORIENTED_EDGE('',*,*,#197,.T.);
#262=ORIENTED_EDGE('',*,*,#192,.F.);
#263=ORIENTED_EDGE('',*,*,#198,.T.);
#264=ORIENTED_EDGE('',*,*,#199,.T.);
#265=ORIENTED_EDGE('',*,*,#198,.F.);
#266=ORIENTED_EDGE('',*,*,#191,.F.);
#267=ORIENTED_EDGE('',*,*,#200,.T.);
#268=ORIENTED_EDGE('',*,*,#201,.T.);
#269=ORIENTED_EDGE('',*,*,#200,.F.);
#270=ORIENTED_EDGE('',*,*,#179,.F.);
#271=ORIENTED_EDGE('',*,*,#195,.F.);
#272=ORIENTED_EDGE('',*,*,#202,.T.);
#273=ORIENTED_EDGE('',*,*,#189,.T.);
#274=ORIENTED_EDGE('',*,*,#174,.F.);
#275=ORIENTED_EDGE('',*,*,#197,.F.);
#276=ORIENTED_EDGE('',*,*,#203,.T.);
#277=ORIENTED_EDGE('',*,*,#193,.T.);
#278=ORIENTED_EDGE('',*,*,#186,.F.);
#279=ORIENTED_EDGE('',*,*,#188,.F.);
#280=ORIENTED_EDGE('',*,*,#190,.F.);
#281=ORIENTED_EDGE('',*,*,#202,.F.);
#282=ORIENTED_EDGE('',*,*,#194,.F.);
#283=ORIENTED_EDGE('',*,*,#203,.F.);
#284=ORIENTED_EDGE('',*,*,#196,.F.);
#285=ORIENTED_EDGE('',*,*,#183,.F.);
#286=ORIENTED_EDGE('',*,*,#201,.F.);
#287=ORIENTED_EDGE('',*,*,#199,.F.);
#288=CYLINDRICAL_SURFACE('',#320,2.5);
#289=CYLINDRICAL_SURFACE('',#323,2.5);
#290=CYLINDRICAL_SURFACE('',#326,2.5);
#291=CYLINDRICAL_SURFACE('',#331,2.5);
#292=CYLINDRICAL_SURFACE('',#340,2.49999999999909);
#293=CYLINDRICAL_SURFACE('',#343,2.49999999999909);
#294=CYLINDRICAL_SURFACE('',#351,4.5);
#295=CYLINDRICAL_SURFACE('',#353,4.5);
#296=CYLINDRICAL_SURFACE('',#355,2.49999999999909);
#297=CYLINDRICAL_SURFACE('',#357,2.49999999999909);
#298=ADVANCED_FACE('',(#30),#288,.T.);
#299=ADVANCED_FACE('',(#31),#289,.T.);
#300=ADVANCED_FACE('',(#32),#290,.T.);
#301=ADVANCED_FACE('',(#33),#26,.T.);
#302=ADVANCED_FACE('',(#34),#291,.T.);
#303=ADVANCED_FACE('',(#35),#27,.T.);
#304=ADVANCED_FACE('',(#36),#28,.T.);
#305=ADVANCED_FACE('',(#37),#29,.T.);
#306=ADVANCED_FACE('',(#38),#292,.T.);
#307=ADVANCED_FACE('',(#39),#20,.T.);
#308=ADVANCED_FACE('',(#40),#293,.T.);
#309=ADVANCED_FACE('',(#41),#21,.T.);
#310=ADVANCED_FACE('',(#42,#16,#17),#22,.T.);
#311=ADVANCED_FACE('',(#43),#23,.T.);
#312=ADVANCED_FACE('',(#44),#24,.T.);
#313=ADVANCED_FACE('',(#45),#294,.F.);
#314=ADVANCED_FACE('',(#46),#295,.F.);
#315=ADVANCED_FACE('',(#47),#296,.T.);
#316=ADVANCED_FACE('',(#48),#297,.T.);
#317=ADVANCED_FACE('',(#49,#18,#19),#25,.F.);
#318=CLOSED_SHELL('',(#298,#299,#300,#301,#302,#303,#304,#305,#306,#307,
#308,#309,#310,#311,#312,#313,#314,#315,#316,#317));
#319=AXIS2_PLACEMENT_3D('placement',#464,#360,#361);
#320=AXIS2_PLACEMENT_3D('',#465,#362,#363);
#321=AXIS2_PLACEMENT_3D('',#468,#364,#365);
#322=AXIS2_PLACEMENT_3D('',#472,#367,#368);
#323=AXIS2_PLACEMENT_3D('',#474,#370,#371);
#324=AXIS2_PLACEMENT_3D('',#476,#372,#373);
#325=AXIS2_PLACEMENT_3D('',#480,#375,#376);
#326=AXIS2_PLACEMENT_3D('',#482,#378,#379);
#327=AXIS2_PLACEMENT_3D('',#484,#380,#381);
#328=AXIS2_PLACEMENT_3D('',#488,#383,#384);
#329=AXIS2_PLACEMENT_3D('',#490,#386,#387);
#330=AXIS2_PLACEMENT_3D('',#491,#388,#389);
#331=AXIS2_PLACEMENT_3D('',#492,#390,#391);
#332=AXIS2_PLACEMENT_3D('',#494,#392,#393);
#333=AXIS2_PLACEMENT_3D('',#497,#395,#396);
#334=AXIS2_PLACEMENT_3D('',#499,#398,#399);
#335=AXIS2_PLACEMENT_3D('',#500,#400,#401);
#336=AXIS2_PLACEMENT_3D('',#501,#402,#403);
#337=AXIS2_PLACEMENT_3D('',#502,#404,#405);
#338=AXIS2_PLACEMENT_3D('',#503,#406,#407);
#339=AXIS2_PLACEMENT_3D('',#504,#408,#409);
#340=AXIS2_PLACEMENT_3D('',#505,#410,#411);
#341=AXIS2_PLACEMENT_3D('',#509,#413,#414);
#342=AXIS2_PLACEMENT_3D('',#511,#416,#417);
#343=AXIS2_PLACEMENT_3D('',#515,#420,#421);
#344=AXIS2_PLACEMENT_3D('',#518,#423,#424);
#345=AXIS2_PLACEMENT_3D('',#519,#425,#426);
#346=AXIS2_PLACEMENT_3D('',#523,#429,#430);
#347=AXIS2_PLACEMENT_3D('',#525,#431,#432);
#348=AXIS2_PLACEMENT_3D('',#527,#433,#434);
#349=AXIS2_PLACEMENT_3D('',#528,#435,#436);
#350=AXIS2_PLACEMENT_3D('',#534,#440,#441);
#351=AXIS2_PLACEMENT_3D('',#538,#444,#445);
#352=AXIS2_PLACEMENT_3D('',#541,#447,#448);
#353=AXIS2_PLACEMENT_3D('',#542,#449,#450);
#354=AXIS2_PLACEMENT_3D('',#545,#452,#453);
#355=AXIS2_PLACEMENT_3D('',#546,#454,#455);
#356=AXIS2_PLACEMENT_3D('',#547,#456,#457);
#357=AXIS2_PLACEMENT_3D('',#548,#458,#459);
#358=AXIS2_PLACEMENT_3D('',#549,#460,#461);
#359=AXIS2_PLACEMENT_3D('',#550,#462,#463);
#360=DIRECTION('axis',(0.,0.,1.));
#361=DIRECTION('refdir',(1.,0.,0.));
#362=DIRECTION('center_axis',(0.,1.,0.));
#363=DIRECTION('ref_axis',(0.707106781186548,0.,0.707106781186548));
#364=DIRECTION('center_axis',(0.,1.,0.));
#365=DIRECTION('ref_axis',(0.,0.,1.));
#366=DIRECTION('',(0.,1.,0.));
#367=DIRECTION('center_axis',(0.,-1.,0.));
#368=DIRECTION('ref_axis',(1.,0.,0.));
#369=DIRECTION('',(0.,-1.,0.));
#370=DIRECTION('center_axis',(-1.,0.,0.));
#371=DIRECTION('ref_axis',(0.,0.707106781186548,0.707106781186548));
#372=DIRECTION('center_axis',(-1.,0.,0.));
#373=DIRECTION('ref_axis',(0.,0.,1.));
#374=DIRECTION('',(-1.,0.,0.));
#375=DIRECTION('center_axis',(1.,0.,0.));
#376=DIRECTION('ref_axis',(0.,1.,0.));
#377=DIRECTION('',(1.,0.,0.));
#378=DIRECTION('center_axis',(0.,-1.,0.));
#379=DIRECTION('ref_axis',(-0.707106781186548,0.,0.707106781186548));
#380=DIRECTION('center_axis',(0.,-1.,0.));
#381=DIRECTION('ref_axis',(0.,0.,1.));
#382=DIRECTION('',(0.,-1.,0.));
#383=DIRECTION('center_axis',(0.,1.,0.));
#384=DIRECTION('ref_axis',(-1.,0.,0.));
#385=DIRECTION('',(0.,1.,0.));
#386=DIRECTION('center_axis',(-0.408248290463491,-0.816496580927875,0.408248290463938));
#387=DIRECTION('ref_axis',(-0.577350269189417,0.577350269189415,0.577350269190045));
#388=DIRECTION('center_axis',(0.,0.,1.));
#389=DIRECTION('ref_axis',(3.63797880709304E-13,1.,0.));
#390=DIRECTION('center_axis',(1.,0.,0.));
#391=DIRECTION('ref_axis',(0.,-0.707106781186548,0.707106781186548));
#392=DIRECTION('center_axis',(1.,0.,0.));
#393=DIRECTION('ref_axis',(0.,0.,1.));
#394=DIRECTION('',(1.,0.,0.));
#395=DIRECTION('center_axis',(-1.,0.,0.));
#396=DIRECTION('ref_axis',(0.,-1.,0.));
#397=DIRECTION('',(-1.,0.,0.));
#398=DIRECTION('center_axis',(0.408248290463493,-0.816496580927874,-0.408248290463937));
#399=DIRECTION('ref_axis',(-0.577350269189417,-0.577350269189415,0.577350269190045));
#400=DIRECTION('center_axis',(0.,0.,1.));
#401=DIRECTION('ref_axis',(-1.,3.63797880709304E-13,0.));
#402=DIRECTION('center_axis',(0.408248290463492,-0.816496580927874,0.408248290463937));
#403=DIRECTION('ref_axis',(0.577350269189415,0.577350269189415,0.577350269190046));
#404=DIRECTION('center_axis',(0.,0.,1.));
#405=DIRECTION('ref_axis',(1.,-3.63797880709304E-13,0.));
#406=DIRECTION('center_axis',(-0.408248290463492,-0.816496580927874,-0.408248290463937));
#407=DIRECTION('ref_axis',(0.577350269189415,-0.577350269189415,0.577350269190046));
#408=DIRECTION('center_axis',(0.,0.,1.));
#409=DIRECTION('ref_axis',(-3.63797880709304E-13,-1.,0.));
#410=DIRECTION('center_axis',(0.,0.,1.));
#411=DIRECTION('ref_axis',(1.,-3.63797880709304E-13,0.));
#412=DIRECTION('',(0.,0.,-1.));
#413=DIRECTION('center_axis',(0.,0.,1.));
#414=DIRECTION('ref_axis',(1.,-3.63797880709304E-13,0.));
#415=DIRECTION('',(0.,0.,-1.));
#416=DIRECTION('center_axis',(1.,0.,0.));
#417=DIRECTION('ref_axis',(0.,1.,0.));
#418=DIRECTION('',(0.,0.,-1.));
#419=DIRECTION('',(0.,1.,0.));
#420=DIRECTION('center_axis',(0.,0.,1.));
#421=DIRECTION('ref_axis',(-3.63797880709304E-13,-1.,0.));
#422=DIRECTION('',(0.,0.,-1.));
#423=DIRECTION('center_axis',(0.,0.,1.));
#424=DIRECTION('ref_axis',(-3.63797880709304E-13,-1.,0.));
#425=DIRECTION('center_axis',(0.,-1.,0.));
#426=DIRECTION('ref_axis',(1.,0.,0.));
#427=DIRECTION('',(0.,0.,1.));
#428=DIRECTION('',(1.,0.,0.));
#429=DIRECTION('center_axis',(0.,0.,1.));
#430=DIRECTION('ref_axis',(1.,0.,0.));
#431=DIRECTION('center_axis',(0.,0.,-1.));
#432=DIRECTION('ref_axis',(-1.,0.,0.));
#433=DIRECTION('center_axis',(0.,0.,-1.));
#434=DIRECTION('ref_axis',(-1.,0.,0.));
#435=DIRECTION('center_axis',(-1.,0.,0.));
#436=DIRECTION('ref_axis',(0.,-1.,0.));
#437=DIRECTION('',(0.,0.,1.));
#438=DIRECTION('',(0.,-1.,0.));
#439=DIRECTION('',(0.,0.,1.));
#440=DIRECTION('center_axis',(0.,1.,0.));
#441=DIRECTION('ref_axis',(-1.,0.,0.));
#442=DIRECTION('',(-1.,0.,0.));
#443=DIRECTION('',(0.,0.,1.));
#444=DIRECTION('center_axis',(0.,0.,1.));
#445=DIRECTION('ref_axis',(-1.,0.,0.));
#446=DIRECTION('',(0.,0.,-1.));
#447=DIRECTION('center_axis',(0.,0.,-1.));
#448=DIRECTION('ref_axis',(-1.,0.,0.));
#449=DIRECTION('center_axis',(0.,0.,1.));
#450=DIRECTION('ref_axis',(-1.,0.,0.));
#451=DIRECTION('',(0.,0.,-1.));
#452=DIRECTION('center_axis',(0.,0.,-1.));
#453=DIRECTION('ref_axis',(-1.,0.,0.));
#454=DIRECTION('center_axis',(0.,0.,1.));
#455=DIRECTION('ref_axis',(-1.,3.63797880709304E-13,0.));
#456=DIRECTION('center_axis',(0.,0.,1.));
#457=DIRECTION('ref_axis',(-1.,3.63797880709304E-13,0.));
#458=DIRECTION('center_axis',(0.,0.,1.));
#459=DIRECTION('ref_axis',(3.63797880709304E-13,1.,0.));
#460=DIRECTION('center_axis',(0.,0.,1.));
#461=DIRECTION('ref_axis',(3.63797880709304E-13,1.,0.));
#462=DIRECTION('center_axis',(0.,0.,1.));
#463=DIRECTION('ref_axis',(1.,0.,0.));
#464=CARTESIAN_POINT('',(0.,0.,0.));
#465=CARTESIAN_POINT('Origin',(20.,-10.,3.5));
#466=CARTESIAN_POINT('',(20.,-20.,6.));
#467=CARTESIAN_POINT('',(22.5,-20.,3.5));
#468=CARTESIAN_POINT('Origin',(20.,-20.,3.5));
#469=CARTESIAN_POINT('',(22.5,20.,3.5));
#470=CARTESIAN_POINT('',(22.5,-10.,3.5));
#471=CARTESIAN_POINT('',(20.,20.,6.));
#472=CARTESIAN_POINT('Origin',(20.,20.,3.5));
#473=CARTESIAN_POINT('',(20.,-10.,6.));
#474=CARTESIAN_POINT('Origin',(-1.25,20.,3.5));
#475=CARTESIAN_POINT('',(20.,22.5,3.5));
#476=CARTESIAN_POINT('Origin',(20.,20.,3.5));
#477=CARTESIAN_POINT('',(-65.,22.5,3.5));
#478=CARTESIAN_POINT('',(-1.25,22.5,3.5));
#479=CARTESIAN_POINT('',(-65.,20.,6.));
#480=CARTESIAN_POINT('Origin',(-65.,20.,3.5));
#481=CARTESIAN_POINT('',(-1.25,20.,6.));
#482=CARTESIAN_POINT('Origin',(-65.,10.,3.5));
#483=CARTESIAN_POINT('',(-67.5,20.,3.5));
#484=CARTESIAN_POINT('Origin',(-65.,20.,3.5));
#485=CARTESIAN_POINT('',(-67.5,-20.,3.5));
#486=CARTESIAN_POINT('',(-67.5,10.,3.5));
#487=CARTESIAN_POINT('',(-65.,-20.,6.));
#488=CARTESIAN_POINT('Origin',(-65.,-20.,3.5));
#489=CARTESIAN_POINT('',(-65.,10.,6.));
#490=CARTESIAN_POINT('Origin',(-65.0000000000009,20.0000000000009,3.5));
#491=CARTESIAN_POINT('Origin',(-65.0000000000009,20.0000000000009,3.5));
#492=CARTESIAN_POINT('Origin',(-43.75,-20.,3.5));
#493=CARTESIAN_POINT('',(-65.,-22.5,3.5));
#494=CARTESIAN_POINT('Origin',(-65.,-20.,3.5));
#495=CARTESIAN_POINT('',(20.,-22.5,3.5));
#496=CARTESIAN_POINT('',(-43.75,-22.5,3.5));
#497=CARTESIAN_POINT('Origin',(20.,-20.,3.5));
#498=CARTESIAN_POINT('',(-43.75,-20.,6.));
#499=CARTESIAN_POINT('Origin',(-65.0000000000009,-20.0000000000009,3.5));
#500=CARTESIAN_POINT('Origin',(-65.0000000000009,-20.0000000000009,3.5));
#501=CARTESIAN_POINT('Origin',(20.0000000000009,20.0000000000009,3.5));
#502=CARTESIAN_POINT('Origin',(20.0000000000009,20.0000000000009,3.5));
#503=CARTESIAN_POINT('Origin',(20.0000000000009,-20.0000000000009,3.5));
#504=CARTESIAN_POINT('Origin',(20.0000000000009,-20.0000000000009,3.5));
#505=CARTESIAN_POINT('Origin',(20.0000000000009,20.0000000000009,0.));
#506=CARTESIAN_POINT('',(22.5,20.,0.));
#507=CARTESIAN_POINT('',(22.5,20.,6.));
#508=CARTESIAN_POINT('',(20.,22.5,0.));
#509=CARTESIAN_POINT('Origin',(20.0000000000009,20.0000000000009,0.));
#510=CARTESIAN_POINT('',(20.,22.5,6.));
#511=CARTESIAN_POINT('Origin',(22.5,-20.,0.));
#512=CARTESIAN_POINT('',(22.5,-20.,0.));
#513=CARTESIAN_POINT('',(22.5,-20.,6.));
#514=CARTESIAN_POINT('',(22.5,-20.,0.));
#515=CARTESIAN_POINT('Origin',(20.0000000000009,-20.0000000000009,0.));
#516=CARTESIAN_POINT('',(20.,-22.5,0.));
#517=CARTESIAN_POINT('',(20.,-22.5,6.));
#518=CARTESIAN_POINT('Origin',(20.0000000000009,-20.0000000000009,0.));
#519=CARTESIAN_POINT('Origin',(-65.,-22.5,0.));
#520=CARTESIAN_POINT('',(-65.,-22.5,0.));
#521=CARTESIAN_POINT('',(-65.,-22.5,0.));
#522=CARTESIAN_POINT('',(-65.,-22.5,0.));
#523=CARTESIAN_POINT('Origin',(-22.5,9.09494701772928E-13,6.));
#524=CARTESIAN_POINT('',(-40.5,0.,6.));
#525=CARTESIAN_POINT('Origin',(-45.,0.,6.));
#526=CARTESIAN_POINT('',(4.5,0.,6.));
#527=CARTESIAN_POINT('Origin',(0.,0.,6.));
#528=CARTESIAN_POINT('Origin',(-67.5,20.,0.));
#529=CARTESIAN_POINT('',(-67.5,20.,0.));
#530=CARTESIAN_POINT('',(-67.5,20.,0.));
#531=CARTESIAN_POINT('',(-67.5,-20.,0.));
#532=CARTESIAN_POINT('',(-67.5,20.,0.));
#533=CARTESIAN_POINT('',(-67.5,-20.,0.));
#534=CARTESIAN_POINT('Origin',(20.,22.5,0.));
#535=CARTESIAN_POINT('',(-65.,22.5,0.));
#536=CARTESIAN_POINT('',(20.,22.5,0.));
#537=CARTESIAN_POINT('',(-65.,22.5,0.));
#538=CARTESIAN_POINT('Origin',(0.,0.,0.));
#539=CARTESIAN_POINT('',(4.5,0.,0.));
#540=CARTESIAN_POINT('',(4.5,0.,0.));
#541=CARTESIAN_POINT('Origin',(0.,0.,0.));
#542=CARTESIAN_POINT('Origin',(-45.,0.,0.));
#543=CARTESIAN_POINT('',(-40.5,0.,0.));
#544=CARTESIAN_POINT('',(-40.5,0.,0.));
#545=CARTESIAN_POINT('Origin',(-45.,0.,0.));
#546=CARTESIAN_POINT('Origin',(-65.0000000000009,-20.0000000000009,0.));
#547=CARTESIAN_POINT('Origin',(-65.0000000000009,-20.0000000000009,0.));
#548=CARTESIAN_POINT('Origin',(-65.0000000000009,20.0000000000009,0.));
#549=CARTESIAN_POINT('Origin',(-65.0000000000009,20.0000000000009,0.));
#550=CARTESIAN_POINT('Origin',(-22.5,9.09494701772928E-13,0.));
#551=UNCERTAINTY_MEASURE_WITH_UNIT(LENGTH_MEASURE(0.01),#555,
'DISTANCE_ACCURACY_VALUE',
'Maximum model space distance between geometric entities at asserted c
onnectivities');
#552=UNCERTAINTY_MEASURE_WITH_UNIT(LENGTH_MEASURE(0.01),#555,
'DISTANCE_ACCURACY_VALUE',
'Maximum model space distance between geometric entities at asserted c
onnectivities');
#553=(
GEOMETRIC_REPRESENTATION_CONTEXT(3)
GLOBAL_UNCERTAINTY_ASSIGNED_CONTEXT((#551))
GLOBAL_UNIT_ASSIGNED_CONTEXT((#555,#556,#557))
REPRESENTATION_CONTEXT('','3D')
);
#554=(
GEOMETRIC_REPRESENTATION_CONTEXT(3)
GLOBAL_UNCERTAINTY_ASSIGNED_CONTEXT((#552))
GLOBAL_UNIT_ASSIGNED_CONTEXT((#555,#556,#557))
REPRESENTATION_CONTEXT('','3D')
);
#555=(
LENGTH_UNIT()
NAMED_UNIT(*)
SI_UNIT(.MILLI.,.METRE.)
);
#556=(
NAMED_UNIT(*)
PLANE_ANGLE_UNIT()
SI_UNIT($,.RADIAN.)
);
#557=(
NAMED_UNIT(*)
SI_UNIT($,.STERADIAN.)
SOLID_ANGLE_UNIT()
);
#558=SHAPE_DEFINITION_REPRESENTATION(#559,#560);
#559=PRODUCT_DEFINITION_SHAPE('',$,#562);
#560=SHAPE_REPRESENTATION('',(#319),#553);
#561=PRODUCT_DEFINITION_CONTEXT('part definition',#566,'design');
#562=PRODUCT_DEFINITION('Product','Product',#563,#561);
#563=PRODUCT_DEFINITION_FORMATION('',$,#568);
#564=PRODUCT_RELATED_PRODUCT_CATEGORY('Product','Product',(#568));
#565=APPLICATION_PROTOCOL_DEFINITION('international standard',
'automotive_design',2009,#566);
#566=APPLICATION_CONTEXT(
'Core Data for Automotive Mechanical Design Process');
#567=PRODUCT_CONTEXT('part definition',#566,'mechanical');
#568=PRODUCT('Product','Product',$,(#567));
#569=PRESENTATION_STYLE_ASSIGNMENT((#570));
#570=SURFACE_STYLE_USAGE(.BOTH.,#571);
#571=SURFACE_SIDE_STYLE('',(#572));
#572=SURFACE_STYLE_FILL_AREA(#573);
#573=FILL_AREA_STYLE('',(#574));
#574=FILL_AREA_STYLE_COLOUR('',#575);
#575=COLOUR_RGB('',1.,1.,1.);
ENDSEC;
END-ISO-10303-21;
