ISO-10303-21;
HEADER;
/* Generated by software containing ST-Developer
 * from STEP Tools, Inc. (www.steptools.com) 
 */

FILE_DESCRIPTION(
/* description */ (''),
/* implementation_level */ '2;1');

FILE_NAME(
/* name */ 
'\\\\FLOTRONICS-SQL\\User Shared Folders\\Modular Solution\\A-Profile 
System\\Parts\\50 Series\\50-120-1\\50-120-0.stp',
/* time_stamp */ '2022-08-10T08:52:44-04:00',
/* author */ ('jmurphy'),
/* organization */ (''),
/* preprocessor_version */ 'ST-DEVELOPER v18.1',
/* originating_system */ 'AutoCAD Mechanical',
/* authorisation */ '');

FILE_SCHEMA (('AUTOMOTIVE_DESIGN { 1 0 10303 214 3 1 1 }'));
ENDSEC;

DATA;
#10=MECHANICAL_DESIGN_GEOMETRIC_PRESENTATION_REPRESENTATION('',(#18),#505);
#11=PRESENTATION_LAYER_ASSIGNMENT('0','0',(#19));
#12=ITEM_DEFINED_TRANSFORMATION($,$,#297,#327);
#13=(
REPRESENTATION_RELATIONSHIP($,$,#515,#514)
REPRESENTATION_RELATIONSHIP_WITH_TRANSFORMATION(#12)
SHAPE_REPRESENTATION_RELATIONSHIP()
);
#14=CONTEXT_DEPENDENT_SHAPE_REPRESENTATION(#13,#513);
#15=NEXT_ASSEMBLY_USAGE_OCCURRENCE('5EA9E','5EA9E','5EA9E',#517,#518,
'5EA9E');
#16=SHAPE_REPRESENTATION_RELATIONSHIP('SRR','None',#515,#17);
#17=ADVANCED_BREP_SHAPE_REPRESENTATION('',(#19),#504);
#18=STYLED_ITEM('',(#528),#19);
#19=MANIFOLD_SOLID_BREP('5EA98',#295);
#20=FACE_BOUND('',#51,.T.);
#21=FACE_BOUND('',#52,.T.);
#22=FACE_BOUND('',#64,.T.);
#23=FACE_BOUND('',#65,.T.);
#24=PLANE('',#301);
#25=PLANE('',#302);
#26=PLANE('',#303);
#27=PLANE('',#316);
#28=PLANE('',#319);
#29=PLANE('',#322);
#30=PLANE('',#325);
#31=PLANE('',#326);
#32=FACE_OUTER_BOUND('',#47,.T.);
#33=FACE_OUTER_BOUND('',#48,.T.);
#34=FACE_OUTER_BOUND('',#49,.T.);
#35=FACE_OUTER_BOUND('',#50,.T.);
#36=FACE_OUTER_BOUND('',#53,.T.);
#37=FACE_OUTER_BOUND('',#54,.T.);
#38=FACE_OUTER_BOUND('',#55,.T.);
#39=FACE_OUTER_BOUND('',#56,.T.);
#40=FACE_OUTER_BOUND('',#57,.T.);
#41=FACE_OUTER_BOUND('',#58,.T.);
#42=FACE_OUTER_BOUND('',#59,.T.);
#43=FACE_OUTER_BOUND('',#60,.T.);
#44=FACE_OUTER_BOUND('',#61,.T.);
#45=FACE_OUTER_BOUND('',#62,.T.);
#46=FACE_OUTER_BOUND('',#63,.T.);
#47=EDGE_LOOP('',(#195,#196,#197,#198));
#48=EDGE_LOOP('',(#199,#200,#201,#202));
#49=EDGE_LOOP('',(#203,#204,#205,#206));
#50=EDGE_LOOP('',(#207,#208,#209,#210));
#51=EDGE_LOOP('',(#211,#212,#213,#214,#215,#216,#217,#218));
#52=EDGE_LOOP('',(#219));
#53=EDGE_LOOP('',(#220,#221,#222,#223));
#54=EDGE_LOOP('',(#224,#225,#226,#227));
#55=EDGE_LOOP('',(#228,#229,#230,#231));
#56=EDGE_LOOP('',(#232,#233,#234,#235));
#57=EDGE_LOOP('',(#236,#237,#238,#239));
#58=EDGE_LOOP('',(#240,#241,#242,#243));
#59=EDGE_LOOP('',(#244,#245,#246,#247));
#60=EDGE_LOOP('',(#248,#249,#250,#251));
#61=EDGE_LOOP('',(#252,#253,#254,#255));
#62=EDGE_LOOP('',(#256,#257,#258,#259));
#63=EDGE_LOOP('',(#260,#261,#262,#263));
#64=EDGE_LOOP('',(#264));
#65=EDGE_LOOP('',(#265,#266,#267,#268,#269,#270,#271,#272));
#66=LINE('',#424,#91);
#67=LINE('',#427,#92);
#68=LINE('',#430,#93);
#69=LINE('',#432,#94);
#70=LINE('',#433,#95);
#71=LINE('',#436,#96);
#72=LINE('',#438,#97);
#73=LINE('',#439,#98);
#74=LINE('',#446,#99);
#75=LINE('',#450,#100);
#76=LINE('',#454,#101);
#77=LINE('',#457,#102);
#78=LINE('',#463,#103);
#79=LINE('',#470,#104);
#80=LINE('',#471,#105);
#81=LINE('',#474,#106);
#82=LINE('',#475,#107);
#83=LINE('',#479,#108);
#84=LINE('',#482,#109);
#85=LINE('',#483,#110);
#86=LINE('',#487,#111);
#87=LINE('',#490,#112);
#88=LINE('',#491,#113);
#89=LINE('',#495,#114);
#90=LINE('',#497,#115);
#91=VECTOR('',#336,1.);
#92=VECTOR('',#339,1.);
#93=VECTOR('',#342,1.);
#94=VECTOR('',#343,1.);
#95=VECTOR('',#344,1.);
#96=VECTOR('',#347,1.);
#97=VECTOR('',#348,1.);
#98=VECTOR('',#349,1.);
#99=VECTOR('',#356,1.);
#100=VECTOR('',#359,1.);
#101=VECTOR('',#362,1.);
#102=VECTOR('',#365,1.);
#103=VECTOR('',#372,2.75);
#104=VECTOR('',#381,1.);
#105=VECTOR('',#382,1.);
#106=VECTOR('',#385,1.);
#107=VECTOR('',#386,1.);
#108=VECTOR('',#391,1.);
#109=VECTOR('',#394,1.);
#110=VECTOR('',#395,1.);
#111=VECTOR('',#400,1.);
#112=VECTOR('',#403,1.);
#113=VECTOR('',#404,1.);
#114=VECTOR('',#409,1.);
#115=VECTOR('',#412,1.);
#116=CIRCLE('',#299,15.);
#117=CIRCLE('',#300,15.);
#118=CIRCLE('',#304,5.99999999999999);
#119=CIRCLE('',#305,11.25);
#120=CIRCLE('',#306,11.25);
#121=CIRCLE('',#307,11.25);
#122=CIRCLE('',#308,11.25);
#123=CIRCLE('',#309,2.75);
#124=CIRCLE('',#311,2.75);
#125=CIRCLE('',#313,5.99999999999999);
#126=CIRCLE('',#315,11.25);
#127=CIRCLE('',#318,11.25);
#128=CIRCLE('',#321,11.25);
#129=CIRCLE('',#324,11.25);
#130=VERTEX_POINT('',#420);
#131=VERTEX_POINT('',#421);
#132=VERTEX_POINT('',#423);
#133=VERTEX_POINT('',#425);
#134=VERTEX_POINT('',#429);
#135=VERTEX_POINT('',#431);
#136=VERTEX_POINT('',#435);
#137=VERTEX_POINT('',#437);
#138=VERTEX_POINT('',#442);
#139=VERTEX_POINT('',#443);
#140=VERTEX_POINT('',#445);
#141=VERTEX_POINT('',#447);
#142=VERTEX_POINT('',#449);
#143=VERTEX_POINT('',#451);
#144=VERTEX_POINT('',#453);
#145=VERTEX_POINT('',#455);
#146=VERTEX_POINT('',#458);
#147=VERTEX_POINT('',#461);
#148=VERTEX_POINT('',#467);
#149=VERTEX_POINT('',#468);
#150=VERTEX_POINT('',#473);
#151=VERTEX_POINT('',#477);
#152=VERTEX_POINT('',#481);
#153=VERTEX_POINT('',#485);
#154=VERTEX_POINT('',#489);
#155=VERTEX_POINT('',#493);
#156=EDGE_CURVE('',#130,#131,#116,.T.);
#157=EDGE_CURVE('',#132,#130,#66,.T.);
#158=EDGE_CURVE('',#133,#132,#117,.T.);
#159=EDGE_CURVE('',#133,#131,#67,.T.);
#160=EDGE_CURVE('',#134,#130,#68,.T.);
#161=EDGE_CURVE('',#135,#134,#69,.T.);
#162=EDGE_CURVE('',#132,#135,#70,.T.);
#163=EDGE_CURVE('',#136,#133,#71,.T.);
#164=EDGE_CURVE('',#136,#137,#72,.T.);
#165=EDGE_CURVE('',#131,#137,#73,.T.);
#166=EDGE_CURVE('',#137,#134,#118,.T.);
#167=EDGE_CURVE('',#138,#139,#119,.T.);
#168=EDGE_CURVE('',#139,#140,#74,.T.);
#169=EDGE_CURVE('',#140,#141,#120,.T.);
#170=EDGE_CURVE('',#141,#142,#75,.T.);
#171=EDGE_CURVE('',#142,#143,#121,.T.);
#172=EDGE_CURVE('',#143,#144,#76,.T.);
#173=EDGE_CURVE('',#144,#145,#122,.T.);
#174=EDGE_CURVE('',#145,#138,#77,.T.);
#175=EDGE_CURVE('',#146,#146,#123,.T.);
#176=EDGE_CURVE('',#147,#147,#124,.T.);
#177=EDGE_CURVE('',#147,#146,#78,.T.);
#178=EDGE_CURVE('',#135,#136,#125,.T.);
#179=EDGE_CURVE('',#148,#149,#126,.T.);
#180=EDGE_CURVE('',#139,#148,#79,.T.);
#181=EDGE_CURVE('',#138,#149,#80,.T.);
#182=EDGE_CURVE('',#149,#150,#81,.T.);
#183=EDGE_CURVE('',#145,#150,#82,.T.);
#184=EDGE_CURVE('',#150,#151,#127,.T.);
#185=EDGE_CURVE('',#144,#151,#83,.T.);
#186=EDGE_CURVE('',#151,#152,#84,.T.);
#187=EDGE_CURVE('',#143,#152,#85,.T.);
#188=EDGE_CURVE('',#152,#153,#128,.T.);
#189=EDGE_CURVE('',#142,#153,#86,.T.);
#190=EDGE_CURVE('',#153,#154,#87,.T.);
#191=EDGE_CURVE('',#141,#154,#88,.T.);
#192=EDGE_CURVE('',#154,#155,#129,.T.);
#193=EDGE_CURVE('',#140,#155,#89,.T.);
#194=EDGE_CURVE('',#155,#148,#90,.T.);
#195=ORIENTED_EDGE('',*,*,#156,.F.);
#196=ORIENTED_EDGE('',*,*,#157,.F.);
#197=ORIENTED_EDGE('',*,*,#158,.F.);
#198=ORIENTED_EDGE('',*,*,#159,.T.);
#199=ORIENTED_EDGE('',*,*,#160,.F.);
#200=ORIENTED_EDGE('',*,*,#161,.F.);
#201=ORIENTED_EDGE('',*,*,#162,.F.);
#202=ORIENTED_EDGE('',*,*,#157,.T.);
#203=ORIENTED_EDGE('',*,*,#163,.F.);
#204=ORIENTED_EDGE('',*,*,#164,.T.);
#205=ORIENTED_EDGE('',*,*,#165,.F.);
#206=ORIENTED_EDGE('',*,*,#159,.F.);
#207=ORIENTED_EDGE('',*,*,#166,.T.);
#208=ORIENTED_EDGE('',*,*,#160,.T.);
#209=ORIENTED_EDGE('',*,*,#156,.T.);
#210=ORIENTED_EDGE('',*,*,#165,.T.);
#211=ORIENTED_EDGE('',*,*,#167,.T.);
#212=ORIENTED_EDGE('',*,*,#168,.T.);
#213=ORIENTED_EDGE('',*,*,#169,.T.);
#214=ORIENTED_EDGE('',*,*,#170,.T.);
#215=ORIENTED_EDGE('',*,*,#171,.T.);
#216=ORIENTED_EDGE('',*,*,#172,.T.);
#217=ORIENTED_EDGE('',*,*,#173,.T.);
#218=ORIENTED_EDGE('',*,*,#174,.T.);
#219=ORIENTED_EDGE('',*,*,#175,.F.);
#220=ORIENTED_EDGE('',*,*,#176,.T.);
#221=ORIENTED_EDGE('',*,*,#177,.T.);
#222=ORIENTED_EDGE('',*,*,#175,.T.);
#223=ORIENTED_EDGE('',*,*,#177,.F.);
#224=ORIENTED_EDGE('',*,*,#166,.F.);
#225=ORIENTED_EDGE('',*,*,#164,.F.);
#226=ORIENTED_EDGE('',*,*,#178,.F.);
#227=ORIENTED_EDGE('',*,*,#161,.T.);
#228=ORIENTED_EDGE('',*,*,#179,.F.);
#229=ORIENTED_EDGE('',*,*,#180,.F.);
#230=ORIENTED_EDGE('',*,*,#167,.F.);
#231=ORIENTED_EDGE('',*,*,#181,.T.);
#232=ORIENTED_EDGE('',*,*,#182,.F.);
#233=ORIENTED_EDGE('',*,*,#181,.F.);
#234=ORIENTED_EDGE('',*,*,#174,.F.);
#235=ORIENTED_EDGE('',*,*,#183,.T.);
#236=ORIENTED_EDGE('',*,*,#184,.F.);
#237=ORIENTED_EDGE('',*,*,#183,.F.);
#238=ORIENTED_EDGE('',*,*,#173,.F.);
#239=ORIENTED_EDGE('',*,*,#185,.T.);
#240=ORIENTED_EDGE('',*,*,#186,.F.);
#241=ORIENTED_EDGE('',*,*,#185,.F.);
#242=ORIENTED_EDGE('',*,*,#172,.F.);
#243=ORIENTED_EDGE('',*,*,#187,.T.);
#244=ORIENTED_EDGE('',*,*,#188,.F.);
#245=ORIENTED_EDGE('',*,*,#187,.F.);
#246=ORIENTED_EDGE('',*,*,#171,.F.);
#247=ORIENTED_EDGE('',*,*,#189,.T.);
#248=ORIENTED_EDGE('',*,*,#190,.F.);
#249=ORIENTED_EDGE('',*,*,#189,.F.);
#250=ORIENTED_EDGE('',*,*,#170,.F.);
#251=ORIENTED_EDGE('',*,*,#191,.T.);
#252=ORIENTED_EDGE('',*,*,#192,.F.);
#253=ORIENTED_EDGE('',*,*,#191,.F.);
#254=ORIENTED_EDGE('',*,*,#169,.F.);
#255=ORIENTED_EDGE('',*,*,#193,.T.);
#256=ORIENTED_EDGE('',*,*,#194,.F.);
#257=ORIENTED_EDGE('',*,*,#193,.F.);
#258=ORIENTED_EDGE('',*,*,#168,.F.);
#259=ORIENTED_EDGE('',*,*,#180,.T.);
#260=ORIENTED_EDGE('',*,*,#178,.T.);
#261=ORIENTED_EDGE('',*,*,#163,.T.);
#262=ORIENTED_EDGE('',*,*,#158,.T.);
#263=ORIENTED_EDGE('',*,*,#162,.T.);
#264=ORIENTED_EDGE('',*,*,#176,.F.);
#265=ORIENTED_EDGE('',*,*,#179,.T.);
#266=ORIENTED_EDGE('',*,*,#182,.T.);
#267=ORIENTED_EDGE('',*,*,#184,.T.);
#268=ORIENTED_EDGE('',*,*,#186,.T.);
#269=ORIENTED_EDGE('',*,*,#188,.T.);
#270=ORIENTED_EDGE('',*,*,#190,.T.);
#271=ORIENTED_EDGE('',*,*,#192,.T.);
#272=ORIENTED_EDGE('',*,*,#194,.T.);
#273=CYLINDRICAL_SURFACE('',#298,15.);
#274=CYLINDRICAL_SURFACE('',#310,2.75);
#275=CYLINDRICAL_SURFACE('',#312,5.99999999999999);
#276=CYLINDRICAL_SURFACE('',#314,11.25);
#277=CYLINDRICAL_SURFACE('',#317,11.25);
#278=CYLINDRICAL_SURFACE('',#320,11.25);
#279=CYLINDRICAL_SURFACE('',#323,11.25);
#280=ADVANCED_FACE('',(#32),#273,.T.);
#281=ADVANCED_FACE('',(#33),#24,.F.);
#282=ADVANCED_FACE('',(#34),#25,.F.);
#283=ADVANCED_FACE('',(#35,#20,#21),#26,.F.);
#284=ADVANCED_FACE('',(#36),#274,.F.);
#285=ADVANCED_FACE('',(#37),#275,.T.);
#286=ADVANCED_FACE('',(#38),#276,.F.);
#287=ADVANCED_FACE('',(#39),#27,.F.);
#288=ADVANCED_FACE('',(#40),#277,.F.);
#289=ADVANCED_FACE('',(#41),#28,.F.);
#290=ADVANCED_FACE('',(#42),#278,.F.);
#291=ADVANCED_FACE('',(#43),#29,.F.);
#292=ADVANCED_FACE('',(#44),#279,.F.);
#293=ADVANCED_FACE('',(#45),#30,.F.);
#294=ADVANCED_FACE('',(#46,#22,#23),#31,.T.);
#295=CLOSED_SHELL('',(#280,#281,#282,#283,#284,#285,#286,#287,#288,#289,
#290,#291,#292,#293,#294));
#296=AXIS2_PLACEMENT_3D('placement',#417,#328,#329);
#297=AXIS2_PLACEMENT_3D('placement',#418,#330,#331);
#298=AXIS2_PLACEMENT_3D('',#419,#332,#333);
#299=AXIS2_PLACEMENT_3D('',#422,#334,#335);
#300=AXIS2_PLACEMENT_3D('',#426,#337,#338);
#301=AXIS2_PLACEMENT_3D('',#428,#340,#341);
#302=AXIS2_PLACEMENT_3D('',#434,#345,#346);
#303=AXIS2_PLACEMENT_3D('',#440,#350,#351);
#304=AXIS2_PLACEMENT_3D('',#441,#352,#353);
#305=AXIS2_PLACEMENT_3D('',#444,#354,#355);
#306=AXIS2_PLACEMENT_3D('',#448,#357,#358);
#307=AXIS2_PLACEMENT_3D('',#452,#360,#361);
#308=AXIS2_PLACEMENT_3D('',#456,#363,#364);
#309=AXIS2_PLACEMENT_3D('',#459,#366,#367);
#310=AXIS2_PLACEMENT_3D('',#460,#368,#369);
#311=AXIS2_PLACEMENT_3D('',#462,#370,#371);
#312=AXIS2_PLACEMENT_3D('',#464,#373,#374);
#313=AXIS2_PLACEMENT_3D('',#465,#375,#376);
#314=AXIS2_PLACEMENT_3D('',#466,#377,#378);
#315=AXIS2_PLACEMENT_3D('',#469,#379,#380);
#316=AXIS2_PLACEMENT_3D('',#472,#383,#384);
#317=AXIS2_PLACEMENT_3D('',#476,#387,#388);
#318=AXIS2_PLACEMENT_3D('',#478,#389,#390);
#319=AXIS2_PLACEMENT_3D('',#480,#392,#393);
#320=AXIS2_PLACEMENT_3D('',#484,#396,#397);
#321=AXIS2_PLACEMENT_3D('',#486,#398,#399);
#322=AXIS2_PLACEMENT_3D('',#488,#401,#402);
#323=AXIS2_PLACEMENT_3D('',#492,#405,#406);
#324=AXIS2_PLACEMENT_3D('',#494,#407,#408);
#325=AXIS2_PLACEMENT_3D('',#496,#410,#411);
#326=AXIS2_PLACEMENT_3D('',#498,#413,#414);
#327=AXIS2_PLACEMENT_3D('',#499,#415,#416);
#328=DIRECTION('axis',(0.,0.,1.));
#329=DIRECTION('refdir',(1.,0.,0.));
#330=DIRECTION('axis',(0.,0.,1.));
#331=DIRECTION('refdir',(1.,0.,0.));
#332=DIRECTION('center_axis',(1.40703896836108E-32,-1.,-1.27897692436818E-16));
#333=DIRECTION('ref_axis',(2.78699993901511E-15,-1.27897692436818E-16,1.));
#334=DIRECTION('center_axis',(2.22044604925031E-16,-1.,-3.82856869892695E-16));
#335=DIRECTION('ref_axis',(0.912493631812941,5.23217832696078E-17,-0.409090909090913));
#336=DIRECTION('',(1.40703896836108E-32,-1.,-1.27897692436818E-16));
#337=DIRECTION('center_axis',(-2.22044604925031E-16,1.,3.82856869892695E-16));
#338=DIRECTION('ref_axis',(0.912493631812941,5.23217832696078E-17,-0.409090909090913));
#339=DIRECTION('',(1.40703896836108E-32,-1.,-1.27897692436818E-16));
#340=DIRECTION('center_axis',(-0.912493631812941,-5.23217832696079E-17,
0.409090909090913));
#341=DIRECTION('ref_axis',(-0.409090909090913,4.86676503120077E-16,-0.912493631812941));
#342=DIRECTION('',(0.409090909090913,-2.58518026385406E-16,0.912493631812941));
#343=DIRECTION('',(1.40703896836108E-32,-1.,-1.27897692436818E-16));
#344=DIRECTION('',(-0.409090909090913,2.58518026385406E-16,-0.912493631812941));
#345=DIRECTION('center_axis',(0.912493631812943,-5.23217832696072E-17,0.409090909090908));
#346=DIRECTION('ref_axis',(-0.409090909090908,-4.86676503120077E-16,0.912493631812943));
#347=DIRECTION('',(-0.409090909090908,-4.40190884960433E-16,0.912493631812943));
#348=DIRECTION('',(1.40703896836108E-32,-1.,-1.27897692436818E-16));
#349=DIRECTION('',(0.409090909090908,4.40190884960433E-16,-0.912493631812943));
#350=DIRECTION('center_axis',(-2.22044604925031E-16,1.,3.82856869892695E-16));
#351=DIRECTION('ref_axis',(-1.22464679914735E-16,3.82856869892695E-16,-1.));
#352=DIRECTION('center_axis',(2.22044604925031E-16,-1.,-3.82856869892695E-16));
#353=DIRECTION('ref_axis',(-0.912493631812943,5.23217832696072E-17,-0.409090909090908));
#354=DIRECTION('center_axis',(-2.22044604925031E-16,1.,3.82856869892695E-16));
#355=DIRECTION('ref_axis',(-1.22464679914735E-16,3.82856869892695E-16,-1.));
#356=DIRECTION('',(1.22464679914735E-16,-3.82856869892695E-16,1.));
#357=DIRECTION('center_axis',(-2.22044604925031E-16,1.,3.82856869892695E-16));
#358=DIRECTION('ref_axis',(-1.22464679914735E-16,3.82856869892695E-16,-1.));
#359=DIRECTION('',(1.,2.22044604925031E-16,-1.22464679914735E-16));
#360=DIRECTION('center_axis',(-2.22044604925031E-16,1.,3.82856869892695E-16));
#361=DIRECTION('ref_axis',(-1.22464679914735E-16,3.82856869892695E-16,-1.));
#362=DIRECTION('',(-1.22464679914735E-16,3.82856869892695E-16,-1.));
#363=DIRECTION('center_axis',(-2.22044604925031E-16,1.,3.82856869892695E-16));
#364=DIRECTION('ref_axis',(-1.22464679914735E-16,3.82856869892695E-16,-1.));
#365=DIRECTION('',(-1.,-2.22044604925031E-16,1.22464679914735E-16));
#366=DIRECTION('center_axis',(2.22044604925031E-16,-1.,-3.82856869892695E-16));
#367=DIRECTION('ref_axis',(-1.22464679914735E-16,3.82856869892695E-16,-1.));
#368=DIRECTION('center_axis',(-2.22044604925031E-16,1.,3.82856869892695E-16));
#369=DIRECTION('ref_axis',(-1.22464679914735E-16,3.82856869892695E-16,-1.));
#370=DIRECTION('center_axis',(-2.22044604925031E-16,1.,3.82856869892695E-16));
#371=DIRECTION('ref_axis',(-1.22464679914735E-16,3.82856869892695E-16,-1.));
#372=DIRECTION('',(2.22044604925031E-16,-1.,-3.82856869892695E-16));
#373=DIRECTION('center_axis',(-2.22044604925031E-16,1.,3.82856869892695E-16));
#374=DIRECTION('ref_axis',(0.866025403784438,3.83724703584704E-16,-0.500000000000001));
#375=DIRECTION('center_axis',(-2.22044604925031E-16,1.,3.82856869892695E-16));
#376=DIRECTION('ref_axis',(-0.912493631812943,5.23217832696072E-17,-0.409090909090908));
#377=DIRECTION('center_axis',(-2.22044604925031E-16,1.,3.82856869892695E-16));
#378=DIRECTION('ref_axis',(-1.22464679914735E-16,3.82856869892695E-16,-1.));
#379=DIRECTION('center_axis',(2.22044604925031E-16,-1.,-3.82856869892695E-16));
#380=DIRECTION('ref_axis',(-1.22464679914735E-16,3.82856869892695E-16,-1.));
#381=DIRECTION('',(-2.22044604925031E-16,1.,3.82856869892695E-16));
#382=DIRECTION('',(-2.22044604925031E-16,1.,3.82856869892695E-16));
#383=DIRECTION('center_axis',(-1.22464679914735E-16,3.82856869892695E-16,
-1.));
#384=DIRECTION('ref_axis',(2.22044604925031E-16,-1.,-3.82856869892695E-16));
#385=DIRECTION('',(1.,2.22044604925031E-16,-1.22464679914735E-16));
#386=DIRECTION('',(-2.22044604925031E-16,1.,3.82856869892695E-16));
#387=DIRECTION('center_axis',(-2.22044604925031E-16,1.,3.82856869892695E-16));
#388=DIRECTION('ref_axis',(-1.22464679914735E-16,3.82856869892695E-16,-1.));
#389=DIRECTION('center_axis',(2.22044604925031E-16,-1.,-3.82856869892695E-16));
#390=DIRECTION('ref_axis',(-1.22464679914735E-16,3.82856869892695E-16,-1.));
#391=DIRECTION('',(-2.22044604925031E-16,1.,3.82856869892695E-16));
#392=DIRECTION('center_axis',(1.,2.22044604925031E-16,-1.22464679914735E-16));
#393=DIRECTION('ref_axis',(2.22044604925031E-16,-1.,-3.82856869892695E-16));
#394=DIRECTION('',(1.22464679914735E-16,-3.82856869892695E-16,1.));
#395=DIRECTION('',(-2.22044604925031E-16,1.,3.82856869892695E-16));
#396=DIRECTION('center_axis',(-2.22044604925031E-16,1.,3.82856869892695E-16));
#397=DIRECTION('ref_axis',(-1.22464679914735E-16,3.82856869892695E-16,-1.));
#398=DIRECTION('center_axis',(2.22044604925031E-16,-1.,-3.82856869892695E-16));
#399=DIRECTION('ref_axis',(-1.22464679914735E-16,3.82856869892695E-16,-1.));
#400=DIRECTION('',(-2.22044604925031E-16,1.,3.82856869892695E-16));
#401=DIRECTION('center_axis',(1.22464679914735E-16,-3.82856869892695E-16,
1.));
#402=DIRECTION('ref_axis',(-2.22044604925031E-16,1.,3.82856869892695E-16));
#403=DIRECTION('',(-1.,-2.22044604925031E-16,1.22464679914735E-16));
#404=DIRECTION('',(-2.22044604925031E-16,1.,3.82856869892695E-16));
#405=DIRECTION('center_axis',(-2.22044604925031E-16,1.,3.82856869892695E-16));
#406=DIRECTION('ref_axis',(-1.22464679914735E-16,3.82856869892695E-16,-1.));
#407=DIRECTION('center_axis',(2.22044604925031E-16,-1.,-3.82856869892695E-16));
#408=DIRECTION('ref_axis',(-1.22464679914735E-16,3.82856869892695E-16,-1.));
#409=DIRECTION('',(-2.22044604925031E-16,1.,3.82856869892695E-16));
#410=DIRECTION('center_axis',(-1.,-2.22044604925031E-16,1.22464679914735E-16));
#411=DIRECTION('ref_axis',(-2.22044604925031E-16,1.,3.82856869892695E-16));
#412=DIRECTION('',(-1.22464679914735E-16,3.82856869892695E-16,-1.));
#413=DIRECTION('center_axis',(-2.22044604925031E-16,1.,3.82856869892695E-16));
#414=DIRECTION('ref_axis',(-1.22464679914735E-16,3.82856869892695E-16,-1.));
#415=DIRECTION('',(0.,0.,1.));
#416=DIRECTION('',(1.,0.,0.));
#417=CARTESIAN_POINT('',(0.,0.,0.));
#418=CARTESIAN_POINT('',(0.,0.,0.));
#419=CARTESIAN_POINT('Origin',(4.40570156281335E-16,52.5458372181895,5.32907051820076E-15));
#420=CARTESIAN_POINT('',(13.6874044771941,5.76430719821308E-15,-6.13636363636369));
#421=CARTESIAN_POINT('',(-13.6874044771941,-3.14121440962305E-16,-6.13636363636362));
#422=CARTESIAN_POINT('Origin',(4.40570156281337E-16,7.15741194004869E-31,
-1.39142080916635E-15));
#423=CARTESIAN_POINT('',(13.6874044771941,2.50000000000001,-6.13636363636369));
#424=CARTESIAN_POINT('',(13.6874044771941,52.5458372181895,-6.13636363636369));
#425=CARTESIAN_POINT('',(-13.6874044771941,2.5,-6.13636363636362));
#426=CARTESIAN_POINT('Origin',(4.40570156281337E-16,2.5,-1.07167657807431E-15));
#427=CARTESIAN_POINT('',(-13.6874044771941,52.5458372181895,-6.13636363636361));
#428=CARTESIAN_POINT('Origin',(13.6874044771941,52.5458372181895,-6.13636363636368));
#429=CARTESIAN_POINT('',(5.47496179087757,1.20756854959866E-14,-24.4545454545454));
#430=CARTESIAN_POINT('',(12.3287915869116,3.25570673131864E-15,-9.16680401754133));
#431=CARTESIAN_POINT('',(5.47496179087757,2.50000000000001,-24.4545454545455));
#432=CARTESIAN_POINT('',(5.47496179087757,52.5458372181895,-24.4545454545454));
#433=CARTESIAN_POINT('',(12.3287915869116,2.5,-9.16680401754133));
#434=CARTESIAN_POINT('Origin',(-5.47496179087771,52.5458372181895,-24.4545454545454));
#435=CARTESIAN_POINT('',(-5.47496179087771,2.50000000000001,-24.4545454545454));
#436=CARTESIAN_POINT('',(-8.22257024375342,2.50000000000001,-18.3258949266322));
#437=CARTESIAN_POINT('',(-5.47496179087771,9.64431404031643E-15,-24.4545454545454));
#438=CARTESIAN_POINT('',(-5.47496179087771,52.5458372181895,-24.4545454545454));
#439=CARTESIAN_POINT('',(-8.22257024375342,9.86526851532131E-15,-18.3258949266322));
#440=CARTESIAN_POINT('Origin',(2.75302801248938E-14,3.23255763373427E-15,
-7.27907267736964));
#441=CARTESIAN_POINT('Origin',(-5.80222831892389E-14,2.66453525910035E-15,
-22.));
#442=CARTESIAN_POINT('',(-5.05568986390577,3.34050790053869E-15,-10.05));
#443=CARTESIAN_POINT('',(-10.05,1.36290374123599E-17,-5.05568986390585));
#444=CARTESIAN_POINT('Origin',(0.,0.,0.));
#445=CARTESIAN_POINT('',(-10.05,-2.70036875700521E-15,5.0556898639058));
#446=CARTESIAN_POINT('',(-10.05,-1.73785812108388E-15,-1.11169140673192));
#447=CARTESIAN_POINT('',(-5.05568986390568,-3.80932837804733E-15,10.0500000000001));
#448=CARTESIAN_POINT('Origin',(0.,0.,0.));
#449=CARTESIAN_POINT('',(5.05568986390563,-1.5641510611385E-15,10.0500000000001));
#450=CARTESIAN_POINT('',(2.52784493195283,-2.1254453903657E-15,10.0500000000001));
#451=CARTESIAN_POINT('',(10.05,1.76272780198795E-15,5.05568986390574));
#452=CARTESIAN_POINT('Origin',(0.,0.,0.));
#453=CARTESIAN_POINT('',(10.05,4.47672559640544E-15,-5.05568986390574));
#454=CARTESIAN_POINT('',(10.05,4.97041575481814E-15,-6.16738127063769));
#455=CARTESIAN_POINT('',(5.05568986390577,5.58568521744758E-15,-10.05));
#456=CARTESIAN_POINT('Origin',(0.,0.,0.));
#457=CARTESIAN_POINT('',(-2.52784493195287,3.90180222976592E-15,-10.05));
#458=CARTESIAN_POINT('',(-2.02066721859313E-15,8.71710622449646E-15,-19.25));
#459=CARTESIAN_POINT('Origin',(-2.69422295812418E-15,9.76996261670137E-15,
-22.));
#460=CARTESIAN_POINT('Origin',(-2.69422295812418E-15,9.76996261670137E-15,
-22.));
#461=CARTESIAN_POINT('',(-2.57577873090571E-15,2.50000000000001,-19.25));
#462=CARTESIAN_POINT('Origin',(-3.24933447043675E-15,2.50000000000001,-22.));
#463=CARTESIAN_POINT('',(-2.02066721859313E-15,8.71710622449646E-15,-19.25));
#464=CARTESIAN_POINT('Origin',(-5.98151975750885E-14,1.25000000000001,-22.));
#465=CARTESIAN_POINT('Origin',(-5.80222831892389E-14,2.5,-22.));
#466=CARTESIAN_POINT('Origin',(0.,0.,0.));
#467=CARTESIAN_POINT('',(-10.05,2.5,-5.05568986390585));
#468=CARTESIAN_POINT('',(-5.05568986390577,2.5,-10.05));
#469=CARTESIAN_POINT('Origin',(-5.55111512312579E-16,2.5,1.11022302462516E-15));
#470=CARTESIAN_POINT('',(-10.05,1.36290374123599E-17,-5.05568986390585));
#471=CARTESIAN_POINT('',(-5.05568986390577,3.34050790053869E-15,-10.05));
#472=CARTESIAN_POINT('Origin',(-5.05568986390577,3.34050790053869E-15,-10.05));
#473=CARTESIAN_POINT('',(5.05568986390577,2.50000000000001,-10.05));
#474=CARTESIAN_POINT('',(-2.52784493195287,2.5,-10.05));
#475=CARTESIAN_POINT('',(5.05568986390577,5.58568521744758E-15,-10.05));
#476=CARTESIAN_POINT('Origin',(0.,0.,0.));
#477=CARTESIAN_POINT('',(10.05,2.5,-5.05568986390574));
#478=CARTESIAN_POINT('Origin',(-5.55111512312579E-16,2.5,1.11022302462516E-15));
#479=CARTESIAN_POINT('',(10.05,4.47672559640544E-15,-5.05568986390574));
#480=CARTESIAN_POINT('Origin',(10.05,4.47672559640544E-15,-5.05568986390574));
#481=CARTESIAN_POINT('',(10.05,2.5,5.05568986390574));
#482=CARTESIAN_POINT('',(10.05,2.5,-6.16738127063769));
#483=CARTESIAN_POINT('',(10.05,1.76272780198795E-15,5.05568986390574));
#484=CARTESIAN_POINT('Origin',(0.,0.,0.));
#485=CARTESIAN_POINT('',(5.05568986390563,2.5,10.0500000000001));
#486=CARTESIAN_POINT('Origin',(-5.55111512312579E-16,2.5,1.11022302462516E-15));
#487=CARTESIAN_POINT('',(5.05568986390563,-1.5641510611385E-15,10.0500000000001));
#488=CARTESIAN_POINT('Origin',(5.05568986390563,-1.5641510611385E-15,10.0500000000001));
#489=CARTESIAN_POINT('',(-5.05568986390568,2.5,10.0500000000001));
#490=CARTESIAN_POINT('',(2.52784493195283,2.5,10.0500000000001));
#491=CARTESIAN_POINT('',(-5.05568986390568,-3.80932837804733E-15,10.0500000000001));
#492=CARTESIAN_POINT('Origin',(0.,0.,0.));
#493=CARTESIAN_POINT('',(-10.05,2.5,5.0556898639058));
#494=CARTESIAN_POINT('Origin',(-5.55111512312579E-16,2.5,1.11022302462516E-15));
#495=CARTESIAN_POINT('',(-10.05,-2.70036875700521E-15,5.0556898639058));
#496=CARTESIAN_POINT('Origin',(-10.05,-2.70036875700521E-15,5.0556898639058));
#497=CARTESIAN_POINT('',(-10.05,2.5,-1.11169140673192));
#498=CARTESIAN_POINT('Origin',(2.69751686125813E-14,2.5,-7.27907267736964));
#499=CARTESIAN_POINT('',(0.,0.,0.));
#500=UNCERTAINTY_MEASURE_WITH_UNIT(LENGTH_MEASURE(0.01),#506,
'DISTANCE_ACCURACY_VALUE',
'Maximum model space distance between geometric entities at asserted c
onnectivities');
#501=UNCERTAINTY_MEASURE_WITH_UNIT(LENGTH_MEASURE(0.01),#506,
'DISTANCE_ACCURACY_VALUE',
'Maximum model space distance between geometric entities at asserted c
onnectivities');
#502=UNCERTAINTY_MEASURE_WITH_UNIT(LENGTH_MEASURE(0.01),#506,
'DISTANCE_ACCURACY_VALUE',
'Maximum model space distance between geometric entities at asserted c
onnectivities');
#503=(
GEOMETRIC_REPRESENTATION_CONTEXT(3)
GLOBAL_UNCERTAINTY_ASSIGNED_CONTEXT((#500))
GLOBAL_UNIT_ASSIGNED_CONTEXT((#506,#507,#508))
REPRESENTATION_CONTEXT('','3D')
);
#504=(
GEOMETRIC_REPRESENTATION_CONTEXT(3)
GLOBAL_UNCERTAINTY_ASSIGNED_CONTEXT((#501))
GLOBAL_UNIT_ASSIGNED_CONTEXT((#506,#507,#508))
REPRESENTATION_CONTEXT('','3D')
);
#505=(
GEOMETRIC_REPRESENTATION_CONTEXT(3)
GLOBAL_UNCERTAINTY_ASSIGNED_CONTEXT((#502))
GLOBAL_UNIT_ASSIGNED_CONTEXT((#506,#507,#508))
REPRESENTATION_CONTEXT('','3D')
);
#506=(
LENGTH_UNIT()
NAMED_UNIT(*)
SI_UNIT(.MILLI.,.METRE.)
);
#507=(
NAMED_UNIT(*)
PLANE_ANGLE_UNIT()
SI_UNIT($,.RADIAN.)
);
#508=(
NAMED_UNIT(*)
SI_UNIT($,.STERADIAN.)
SOLID_ANGLE_UNIT()
);
#509=SHAPE_DEFINITION_REPRESENTATION(#511,#514);
#510=SHAPE_DEFINITION_REPRESENTATION(#512,#515);
#511=PRODUCT_DEFINITION_SHAPE('',$,#517);
#512=PRODUCT_DEFINITION_SHAPE('',$,#518);
#513=PRODUCT_DEFINITION_SHAPE($,$,#15);
#514=SHAPE_REPRESENTATION('',(#296,#327),#503);
#515=SHAPE_REPRESENTATION('',(#297),#504);
#516=PRODUCT_DEFINITION_CONTEXT('part definition',#524,'design');
#517=PRODUCT_DEFINITION('Product','Product',#519,#516);
#518=PRODUCT_DEFINITION('50-120-0','50-120-0',#520,#516);
#519=PRODUCT_DEFINITION_FORMATION('',$,#526);
#520=PRODUCT_DEFINITION_FORMATION('',$,#527);
#521=PRODUCT_RELATED_PRODUCT_CATEGORY('Product','Product',(#526));
#522=PRODUCT_RELATED_PRODUCT_CATEGORY('50-120-0','50-120-0',(#527));
#523=APPLICATION_PROTOCOL_DEFINITION('international standard',
'automotive_design',2009,#524);
#524=APPLICATION_CONTEXT(
'Core Data for Automotive Mechanical Design Process');
#525=PRODUCT_CONTEXT('part definition',#524,'mechanical');
#526=PRODUCT('Product','Product',$,(#525));
#527=PRODUCT('50-120-0','50-120-0',$,(#525));
#528=PRESENTATION_STYLE_ASSIGNMENT((#529));
#529=SURFACE_STYLE_USAGE(.BOTH.,#530);
#530=SURFACE_SIDE_STYLE('',(#531));
#531=SURFACE_STYLE_FILL_AREA(#532);
#532=FILL_AREA_STYLE('',(#533));
#533=FILL_AREA_STYLE_COLOUR('',#534);
#534=COLOUR_RGB('',1.,1.,1.);
ENDSEC;
END-ISO-10303-21;
