ISO-10303-21;
HEADER;
/* Generated by software containing ST-Developer
 * from STEP Tools, Inc. (www.steptools.com) 
 */
/* OPTION: using custom renumber hook */

FILE_DESCRIPTION(
/* description */ ('STEP AP203'),
/* implementation_level */ '2;1');

FILE_NAME(
/* name */ '095AI20',
/* time_stamp */ '2024-09-09T17:20:10+02:00',
/* author */ ('License CC BY-ND 4.0'),
/* organization */ ('CADENAS'),
/* preprocessor_version */ 'ST-DEVELOPER v19.3',
/* originating_system */ 'PARTsolutions',
/* authorisation */ '  ');

FILE_SCHEMA (('CONFIG_CONTROL_DESIGN'));
ENDSEC;

DATA;
#10=PROPERTY_DEFINITION_REPRESENTATION(#14,#12);
#11=PROPERTY_DEFINITION_REPRESENTATION(#15,#13);
#12=REPRESENTATION('',(#16),#429);
#13=REPRESENTATION('',(#17),#429);
#14=PROPERTY_DEFINITION('pmi validation property','',#434);
#15=PROPERTY_DEFINITION('pmi validation property','',#434);
#16=VALUE_REPRESENTATION_ITEM('number of annotations',COUNT_MEASURE(0.));
#17=VALUE_REPRESENTATION_ITEM('number of views',COUNT_MEASURE(0.));
#18=SHAPE_REPRESENTATION_RELATIONSHIP('','',#257,#19);
#19=ADVANCED_BREP_SHAPE_REPRESENTATION('',(#255),#429);
#20=CONICAL_SURFACE('',#280,5.65,0.785398163397448);
#21=CONICAL_SURFACE('',#283,5.65,0.785398163397448);
#22=PLANE('',#262);
#23=PLANE('',#268);
#24=PLANE('',#271);
#25=PLANE('',#278);
#26=PLANE('',#279);
#27=CIRCLE('',#260,1.99999999999999);
#28=CIRCLE('',#261,1.99999999999999);
#29=CIRCLE('',#263,2.65);
#30=CIRCLE('',#264,2.65);
#31=CIRCLE('',#266,5.);
#32=CIRCLE('',#267,5.);
#33=CIRCLE('',#269,5.65);
#34=CIRCLE('',#270,5.65);
#35=CIRCLE('',#273,3.05);
#36=CIRCLE('',#274,3.05);
#37=CIRCLE('',#276,0.299999999999984);
#38=CIRCLE('',#277,0.299999999999984);
#39=CIRCLE('',#281,2.65);
#40=CIRCLE('',#284,2.65);
#41=LINE('',#364,#55);
#42=LINE('',#368,#56);
#43=LINE('',#372,#57);
#44=LINE('',#379,#58);
#45=LINE('',#385,#59);
#46=LINE('',#388,#60);
#47=LINE('',#390,#61);
#48=LINE('',#392,#62);
#49=LINE('',#396,#63);
#50=LINE('',#402,#64);
#51=LINE('',#403,#65);
#52=LINE('',#405,#66);
#53=LINE('',#407,#67);
#54=LINE('',#409,#68);
#55=VECTOR('',#290,1000.);
#56=VECTOR('',#293,1000.);
#57=VECTOR('',#296,1000.);
#58=VECTOR('',#297,1000.);
#59=VECTOR('',#304,1000.);
#60=VECTOR('',#305,1000.);
#61=VECTOR('',#306,1000.);
#62=VECTOR('',#307,1000.);
#63=VECTOR('',#312,1000.);
#64=VECTOR('',#321,1000.);
#65=VECTOR('',#322,1000.);
#66=VECTOR('',#325,1000.);
#67=VECTOR('',#326,1000.);
#68=VECTOR('',#327,1000.);
#69=ORIENTED_EDGE('',*,*,#129,.T.);
#70=ORIENTED_EDGE('',*,*,#130,.T.);
#71=ORIENTED_EDGE('',*,*,#131,.T.);
#72=ORIENTED_EDGE('',*,*,#132,.F.);
#73=ORIENTED_EDGE('',*,*,#133,.F.);
#74=ORIENTED_EDGE('',*,*,#134,.T.);
#75=ORIENTED_EDGE('',*,*,#135,.F.);
#76=ORIENTED_EDGE('',*,*,#136,.T.);
#77=ORIENTED_EDGE('',*,*,#137,.F.);
#78=ORIENTED_EDGE('',*,*,#138,.F.);
#79=ORIENTED_EDGE('',*,*,#139,.T.);
#80=ORIENTED_EDGE('',*,*,#140,.F.);
#81=ORIENTED_EDGE('',*,*,#141,.F.);
#82=ORIENTED_EDGE('',*,*,#142,.T.);
#83=ORIENTED_EDGE('',*,*,#143,.T.);
#84=ORIENTED_EDGE('',*,*,#144,.F.);
#85=ORIENTED_EDGE('',*,*,#145,.F.);
#86=ORIENTED_EDGE('',*,*,#140,.T.);
#87=ORIENTED_EDGE('',*,*,#146,.F.);
#88=ORIENTED_EDGE('',*,*,#136,.F.);
#89=ORIENTED_EDGE('',*,*,#147,.T.);
#90=ORIENTED_EDGE('',*,*,#134,.F.);
#91=ORIENTED_EDGE('',*,*,#148,.F.);
#92=ORIENTED_EDGE('',*,*,#144,.T.);
#93=ORIENTED_EDGE('',*,*,#149,.T.);
#94=ORIENTED_EDGE('',*,*,#130,.F.);
#95=ORIENTED_EDGE('',*,*,#150,.T.);
#96=ORIENTED_EDGE('',*,*,#151,.F.);
#97=ORIENTED_EDGE('',*,*,#152,.F.);
#98=ORIENTED_EDGE('',*,*,#132,.T.);
#99=ORIENTED_EDGE('',*,*,#153,.T.);
#100=ORIENTED_EDGE('',*,*,#154,.F.);
#101=ORIENTED_EDGE('',*,*,#155,.T.);
#102=ORIENTED_EDGE('',*,*,#142,.F.);
#103=ORIENTED_EDGE('',*,*,#156,.F.);
#104=ORIENTED_EDGE('',*,*,#151,.T.);
#105=ORIENTED_EDGE('',*,*,#153,.F.);
#106=ORIENTED_EDGE('',*,*,#141,.T.);
#107=ORIENTED_EDGE('',*,*,#145,.T.);
#108=ORIENTED_EDGE('',*,*,#148,.T.);
#109=ORIENTED_EDGE('',*,*,#133,.T.);
#110=ORIENTED_EDGE('',*,*,#152,.T.);
#111=ORIENTED_EDGE('',*,*,#156,.T.);
#112=ORIENTED_EDGE('',*,*,#154,.T.);
#113=ORIENTED_EDGE('',*,*,#139,.F.);
#114=ORIENTED_EDGE('',*,*,#155,.F.);
#115=ORIENTED_EDGE('',*,*,#150,.F.);
#116=ORIENTED_EDGE('',*,*,#131,.F.);
#117=ORIENTED_EDGE('',*,*,#149,.F.);
#118=ORIENTED_EDGE('',*,*,#143,.F.);
#119=ORIENTED_EDGE('',*,*,#157,.T.);
#120=ORIENTED_EDGE('',*,*,#135,.T.);
#121=ORIENTED_EDGE('',*,*,#147,.F.);
#122=ORIENTED_EDGE('',*,*,#138,.T.);
#123=ORIENTED_EDGE('',*,*,#157,.F.);
#124=ORIENTED_EDGE('',*,*,#158,.T.);
#125=ORIENTED_EDGE('',*,*,#129,.F.);
#126=ORIENTED_EDGE('',*,*,#146,.T.);
#127=ORIENTED_EDGE('',*,*,#137,.T.);
#128=ORIENTED_EDGE('',*,*,#158,.F.);
#129=EDGE_CURVE('',#159,#160,#181,.F.);
#130=EDGE_CURVE('',#160,#161,#41,.T.);
#131=EDGE_CURVE('',#161,#162,#27,.T.);
#132=EDGE_CURVE('',#163,#162,#42,.T.);
#133=EDGE_CURVE('',#164,#163,#28,.T.);
#134=EDGE_CURVE('',#164,#165,#43,.T.);
#135=EDGE_CURVE('',#166,#165,#182,.T.);
#136=EDGE_CURVE('',#166,#159,#44,.T.);
#137=EDGE_CURVE('',#167,#167,#29,.T.);
#138=EDGE_CURVE('',#168,#168,#30,.T.);
#139=EDGE_CURVE('',#169,#170,#45,.T.);
#140=EDGE_CURVE('',#171,#170,#46,.T.);
#141=EDGE_CURVE('',#172,#171,#47,.T.);
#142=EDGE_CURVE('',#172,#169,#48,.T.);
#143=EDGE_CURVE('',#170,#173,#31,.T.);
#144=EDGE_CURVE('',#174,#173,#49,.T.);
#145=EDGE_CURVE('',#171,#174,#32,.T.);
#146=EDGE_CURVE('',#159,#160,#33,.F.);
#147=EDGE_CURVE('',#166,#165,#34,.T.);
#148=EDGE_CURVE('',#174,#164,#50,.T.);
#149=EDGE_CURVE('',#173,#161,#51,.T.);
#150=EDGE_CURVE('',#162,#175,#52,.T.);
#151=EDGE_CURVE('',#176,#175,#53,.T.);
#152=EDGE_CURVE('',#163,#176,#54,.T.);
#153=EDGE_CURVE('',#177,#177,#35,.T.);
#154=EDGE_CURVE('',#178,#178,#36,.T.);
#155=EDGE_CURVE('',#175,#169,#37,.T.);
#156=EDGE_CURVE('',#176,#172,#38,.T.);
#157=EDGE_CURVE('',#179,#179,#39,.T.);
#158=EDGE_CURVE('',#180,#180,#40,.T.);
#159=VERTEX_POINT('',#362);
#160=VERTEX_POINT('',#363);
#161=VERTEX_POINT('',#365);
#162=VERTEX_POINT('',#367);
#163=VERTEX_POINT('',#369);
#164=VERTEX_POINT('',#371);
#165=VERTEX_POINT('',#373);
#166=VERTEX_POINT('',#378);
#167=VERTEX_POINT('',#382);
#168=VERTEX_POINT('',#384);
#169=VERTEX_POINT('',#386);
#170=VERTEX_POINT('',#387);
#171=VERTEX_POINT('',#389);
#172=VERTEX_POINT('',#391);
#173=VERTEX_POINT('',#395);
#174=VERTEX_POINT('',#397);
#175=VERTEX_POINT('',#406);
#176=VERTEX_POINT('',#408);
#177=VERTEX_POINT('',#412);
#178=VERTEX_POINT('',#414);
#179=VERTEX_POINT('',#422);
#180=VERTEX_POINT('',#426);
#181=B_SPLINE_CURVE_WITH_KNOTS('',3,(#358,#359,#360,#361),.UNSPECIFIED.,
 .F.,.F.,(4,4),(0.,1.),.UNSPECIFIED.);
#182=B_SPLINE_CURVE_WITH_KNOTS('',3,(#374,#375,#376,#377),.UNSPECIFIED.,
 .F.,.F.,(4,4),(0.,1.),.UNSPECIFIED.);
#183=EDGE_LOOP('',(#69,#70,#71,#72,#73,#74,#75,#76));
#184=EDGE_LOOP('',(#77));
#185=EDGE_LOOP('',(#78));
#186=EDGE_LOOP('',(#79,#80,#81,#82));
#187=EDGE_LOOP('',(#83,#84,#85,#86));
#188=EDGE_LOOP('',(#87,#88,#89,#90,#91,#92,#93,#94));
#189=EDGE_LOOP('',(#95,#96,#97,#98));
#190=EDGE_LOOP('',(#99));
#191=EDGE_LOOP('',(#100));
#192=EDGE_LOOP('',(#101,#102,#103,#104));
#193=EDGE_LOOP('',(#105));
#194=EDGE_LOOP('',(#106,#107,#108,#109,#110,#111));
#195=EDGE_LOOP('',(#112));
#196=EDGE_LOOP('',(#113,#114,#115,#116,#117,#118));
#197=EDGE_LOOP('',(#119));
#198=EDGE_LOOP('',(#120,#121));
#199=EDGE_LOOP('',(#122));
#200=EDGE_LOOP('',(#123));
#201=EDGE_LOOP('',(#124));
#202=EDGE_LOOP('',(#125,#126));
#203=EDGE_LOOP('',(#127));
#204=EDGE_LOOP('',(#128));
#205=FACE_BOUND('',#183,.T.);
#206=FACE_BOUND('',#184,.T.);
#207=FACE_BOUND('',#185,.T.);
#208=FACE_BOUND('',#186,.T.);
#209=FACE_BOUND('',#187,.T.);
#210=FACE_BOUND('',#188,.T.);
#211=FACE_BOUND('',#189,.T.);
#212=FACE_BOUND('',#190,.T.);
#213=FACE_BOUND('',#191,.T.);
#214=FACE_BOUND('',#192,.T.);
#215=FACE_BOUND('',#193,.T.);
#216=FACE_BOUND('',#194,.T.);
#217=FACE_BOUND('',#195,.T.);
#218=FACE_BOUND('',#196,.T.);
#219=FACE_BOUND('',#197,.T.);
#220=FACE_BOUND('',#198,.T.);
#221=FACE_BOUND('',#199,.T.);
#222=FACE_BOUND('',#200,.T.);
#223=FACE_BOUND('',#201,.T.);
#224=FACE_BOUND('',#202,.T.);
#225=FACE_BOUND('',#203,.T.);
#226=FACE_BOUND('',#204,.T.);
#227=CYLINDRICAL_SURFACE('',#259,1.99999999999999);
#228=CYLINDRICAL_SURFACE('',#265,5.);
#229=CYLINDRICAL_SURFACE('',#272,3.05);
#230=CYLINDRICAL_SURFACE('',#275,0.299999999999984);
#231=CYLINDRICAL_SURFACE('',#282,2.65);
#232=CYLINDRICAL_SURFACE('',#285,2.65);
#233=ADVANCED_FACE('',(#205),#227,.T.);
#234=ADVANCED_FACE('',(#206,#207,#208),#22,.F.);
#235=ADVANCED_FACE('',(#209),#228,.T.);
#236=ADVANCED_FACE('',(#210),#23,.F.);
#237=ADVANCED_FACE('',(#211),#24,.F.);
#238=ADVANCED_FACE('',(#212,#213),#229,.F.);
#239=ADVANCED_FACE('',(#214),#230,.T.);
#240=ADVANCED_FACE('',(#215,#216),#25,.T.);
#241=ADVANCED_FACE('',(#217,#218),#26,.F.);
#242=ADVANCED_FACE('',(#219,#220),#20,.F.);
#243=ADVANCED_FACE('',(#221,#222),#231,.F.);
#244=ADVANCED_FACE('',(#223,#224),#21,.F.);
#245=ADVANCED_FACE('',(#225,#226),#232,.F.);
#246=CLOSED_SHELL('',(#233,#234,#235,#236,#237,#238,#239,#240,#241,#242,
#243,#244,#245));
#247=STYLED_ITEM('',(#248),#255);
#248=PRESENTATION_STYLE_ASSIGNMENT((#249));
#249=SURFACE_STYLE_USAGE(.BOTH.,#250);
#250=SURFACE_SIDE_STYLE('',(#251));
#251=SURFACE_STYLE_FILL_AREA(#252);
#252=FILL_AREA_STYLE('',(#253));
#253=FILL_AREA_STYLE_COLOUR('',#254);
#254=COLOUR_RGB('',0.792156875133514,0.792156875133514,0.792156875133514);
#255=MANIFOLD_SOLID_BREP('095AI20',#246);
#256=SHAPE_DEFINITION_REPRESENTATION(#434,#257);
#257=SHAPE_REPRESENTATION('095AI20',(#258),#429);
#258=AXIS2_PLACEMENT_3D('',#356,#286,#287);
#259=AXIS2_PLACEMENT_3D('',#357,#288,#289);
#260=AXIS2_PLACEMENT_3D('',#366,#291,#292);
#261=AXIS2_PLACEMENT_3D('',#370,#294,#295);
#262=AXIS2_PLACEMENT_3D('',#380,#298,#299);
#263=AXIS2_PLACEMENT_3D('',#381,#300,#301);
#264=AXIS2_PLACEMENT_3D('',#383,#302,#303);
#265=AXIS2_PLACEMENT_3D('',#393,#308,#309);
#266=AXIS2_PLACEMENT_3D('',#394,#310,#311);
#267=AXIS2_PLACEMENT_3D('',#398,#313,#314);
#268=AXIS2_PLACEMENT_3D('',#399,#315,#316);
#269=AXIS2_PLACEMENT_3D('',#400,#317,#318);
#270=AXIS2_PLACEMENT_3D('',#401,#319,#320);
#271=AXIS2_PLACEMENT_3D('',#404,#323,#324);
#272=AXIS2_PLACEMENT_3D('',#410,#328,#329);
#273=AXIS2_PLACEMENT_3D('',#411,#330,#331);
#274=AXIS2_PLACEMENT_3D('',#413,#332,#333);
#275=AXIS2_PLACEMENT_3D('',#415,#334,#335);
#276=AXIS2_PLACEMENT_3D('',#416,#336,#337);
#277=AXIS2_PLACEMENT_3D('',#417,#338,#339);
#278=AXIS2_PLACEMENT_3D('',#418,#340,#341);
#279=AXIS2_PLACEMENT_3D('',#419,#342,#343);
#280=AXIS2_PLACEMENT_3D('',#420,#344,#345);
#281=AXIS2_PLACEMENT_3D('',#421,#346,#347);
#282=AXIS2_PLACEMENT_3D('',#423,#348,#349);
#283=AXIS2_PLACEMENT_3D('',#424,#350,#351);
#284=AXIS2_PLACEMENT_3D('',#425,#352,#353);
#285=AXIS2_PLACEMENT_3D('',#427,#354,#355);
#286=DIRECTION('',(0.,0.,1.));
#287=DIRECTION('',(1.,0.,0.));
#288=DIRECTION('',(0.,-1.,0.));
#289=DIRECTION('',(0.,0.,-1.));
#290=DIRECTION('',(0.,-1.,0.));
#291=DIRECTION('',(0.,1.,0.));
#292=DIRECTION('',(1.,0.,0.));
#293=DIRECTION('',(0.,-1.,0.));
#294=DIRECTION('',(0.,1.,0.));
#295=DIRECTION('',(1.,0.,0.));
#296=DIRECTION('',(0.,-1.,0.));
#297=DIRECTION('',(0.,-1.,0.));
#298=DIRECTION('',(0.,0.,1.));
#299=DIRECTION('',(1.,0.,0.));
#300=DIRECTION('',(0.,0.,-1.));
#301=DIRECTION('',(-1.,0.,0.));
#302=DIRECTION('',(0.,0.,-1.));
#303=DIRECTION('',(-1.,0.,0.));
#304=DIRECTION('',(-1.,0.,0.));
#305=DIRECTION('',(0.,-1.,0.));
#306=DIRECTION('',(-1.,0.,0.));
#307=DIRECTION('',(0.,-1.,0.));
#308=DIRECTION('',(0.,-1.,0.));
#309=DIRECTION('',(0.,0.,-1.));
#310=DIRECTION('',(0.,1.,0.));
#311=DIRECTION('',(1.,0.,0.));
#312=DIRECTION('',(0.,-1.,0.));
#313=DIRECTION('',(0.,1.,0.));
#314=DIRECTION('',(1.,0.,0.));
#315=DIRECTION('',(0.,0.,-1.));
#316=DIRECTION('',(-1.,0.,0.));
#317=DIRECTION('',(0.,0.,-1.));
#318=DIRECTION('',(-1.,0.,0.));
#319=DIRECTION('',(0.,0.,-1.));
#320=DIRECTION('',(-1.,0.,0.));
#321=DIRECTION('',(1.,0.,0.));
#322=DIRECTION('',(1.,0.,0.));
#323=DIRECTION('',(-1.,0.,0.));
#324=DIRECTION('',(0.,0.,1.));
#325=DIRECTION('',(0.,0.,-1.));
#326=DIRECTION('',(0.,-1.,0.));
#327=DIRECTION('',(0.,0.,-1.));
#328=DIRECTION('',(0.,-1.,0.));
#329=DIRECTION('',(0.,0.,-1.));
#330=DIRECTION('',(0.,1.,0.));
#331=DIRECTION('',(1.,0.,0.));
#332=DIRECTION('',(0.,1.,0.));
#333=DIRECTION('',(1.,0.,0.));
#334=DIRECTION('',(0.,-1.,0.));
#335=DIRECTION('',(0.,0.,-1.));
#336=DIRECTION('',(0.,1.,0.));
#337=DIRECTION('',(1.,0.,0.));
#338=DIRECTION('',(0.,1.,0.));
#339=DIRECTION('',(1.,0.,0.));
#340=DIRECTION('',(0.,1.,0.));
#341=DIRECTION('',(0.,0.,1.));
#342=DIRECTION('',(0.,1.,0.));
#343=DIRECTION('',(0.,0.,1.));
#344=DIRECTION('',(0.,0.,1.));
#345=DIRECTION('',(1.,0.,0.));
#346=DIRECTION('',(0.,0.,-1.));
#347=DIRECTION('',(-1.,0.,0.));
#348=DIRECTION('',(0.,0.,-1.));
#349=DIRECTION('',(-1.,0.,0.));
#350=DIRECTION('',(0.,0.,1.));
#351=DIRECTION('',(1.,0.,0.));
#352=DIRECTION('',(0.,0.,-1.));
#353=DIRECTION('',(-1.,0.,0.));
#354=DIRECTION('',(0.,0.,-1.));
#355=DIRECTION('',(-1.,0.,0.));
#356=CARTESIAN_POINT('',(0.,0.,0.));
#357=CARTESIAN_POINT('',(20.,25.,6.93889390390723E-15));
#358=CARTESIAN_POINT('',(20.,-16.2932517156378,2.));
#359=CARTESIAN_POINT('',(20.192904915498,-15.4728568749349,2.));
#360=CARTESIAN_POINT('',(20.1934453203466,-14.5294413835025,2.));
#361=CARTESIAN_POINT('',(20.,-13.7067482843622,2.));
#362=CARTESIAN_POINT('',(20.,-13.7067482843622,2.));
#363=CARTESIAN_POINT('',(20.,-16.2932517156378,2.));
#364=CARTESIAN_POINT('',(20.,25.,2.));
#365=CARTESIAN_POINT('',(20.,-25.,2.));
#366=CARTESIAN_POINT('',(20.,-25.,6.93889390390723E-15));
#367=CARTESIAN_POINT('',(22.,-25.,1.6098233857065E-15));
#368=CARTESIAN_POINT('',(22.,25.,1.6098233857065E-15));
#369=CARTESIAN_POINT('',(22.,25.,1.6098233857065E-15));
#370=CARTESIAN_POINT('',(20.,25.,6.93889390390723E-15));
#371=CARTESIAN_POINT('',(20.,25.,2.));
#372=CARTESIAN_POINT('',(20.,25.,2.));
#373=CARTESIAN_POINT('',(20.,16.2932517156377,2.));
#374=CARTESIAN_POINT('',(20.,13.7067482843622,2.));
#375=CARTESIAN_POINT('',(20.192576333089,14.5257457147793,2.));
#376=CARTESIAN_POINT('',(20.19377403328,15.4691606511118,2.));
#377=CARTESIAN_POINT('',(20.,16.2932517156378,2.));
#378=CARTESIAN_POINT('',(20.,13.7067482843622,2.));
#379=CARTESIAN_POINT('',(20.,25.,2.));
#380=CARTESIAN_POINT('',(21.7,25.,-2.));
#381=CARTESIAN_POINT('',(14.5,-15.,-2.));
#382=CARTESIAN_POINT('',(11.85,-15.,-2.));
#383=CARTESIAN_POINT('',(14.5,15.,-2.));
#384=CARTESIAN_POINT('',(11.85,15.,-2.));
#385=CARTESIAN_POINT('',(21.7,-25.,-2.));
#386=CARTESIAN_POINT('',(21.7,-25.,-2.));
#387=CARTESIAN_POINT('',(4.58257569495584,-25.,-2.));
#388=CARTESIAN_POINT('',(4.58257569495584,25.,-2.));
#389=CARTESIAN_POINT('',(4.58257569495584,25.,-2.));
#390=CARTESIAN_POINT('',(21.7,25.,-2.));
#391=CARTESIAN_POINT('',(21.7,25.,-2.));
#392=CARTESIAN_POINT('',(21.7,25.,-2.));
#393=CARTESIAN_POINT('',(1.89735380184963E-16,25.,0.));
#394=CARTESIAN_POINT('',(1.89735380184963E-16,-25.,0.));
#395=CARTESIAN_POINT('',(4.58257569495584,-25.,2.));
#396=CARTESIAN_POINT('',(4.58257569495584,25.,2.));
#397=CARTESIAN_POINT('',(4.58257569495584,25.,2.));
#398=CARTESIAN_POINT('',(1.89735380184963E-16,25.,0.));
#399=CARTESIAN_POINT('',(4.58257569495584,25.,2.));
#400=CARTESIAN_POINT('',(14.5,-15.,2.));
#401=CARTESIAN_POINT('',(14.5,15.,2.));
#402=CARTESIAN_POINT('',(4.58257569495584,25.,2.));
#403=CARTESIAN_POINT('',(4.58257569495584,-25.,2.));
#404=CARTESIAN_POINT('',(22.,25.,0.));
#405=CARTESIAN_POINT('',(22.,-25.,0.));
#406=CARTESIAN_POINT('',(22.,-25.,-1.7));
#407=CARTESIAN_POINT('',(22.,25.,-1.7));
#408=CARTESIAN_POINT('',(22.,25.,-1.7));
#409=CARTESIAN_POINT('',(22.,25.,0.));
#410=CARTESIAN_POINT('',(0.,25.,0.));
#411=CARTESIAN_POINT('',(0.,25.,0.));
#412=CARTESIAN_POINT('',(3.05,25.,0.));
#413=CARTESIAN_POINT('',(0.,-25.,0.));
#414=CARTESIAN_POINT('',(3.05,-25.,0.));
#415=CARTESIAN_POINT('',(21.7,25.,-1.70000000000001));
#416=CARTESIAN_POINT('',(21.7,-25.,-1.70000000000001));
#417=CARTESIAN_POINT('',(21.7,25.,-1.70000000000001));
#418=CARTESIAN_POINT('',(1.89735380184963E-16,25.,0.));
#419=CARTESIAN_POINT('',(1.89735380184963E-16,-25.,0.));
#420=CARTESIAN_POINT('',(14.5,15.,2.));
#421=CARTESIAN_POINT('',(14.5,15.,-1.));
#422=CARTESIAN_POINT('',(11.85,15.,-1.));
#423=CARTESIAN_POINT('',(14.5,15.,-2.));
#424=CARTESIAN_POINT('',(14.5,-15.,2.));
#425=CARTESIAN_POINT('',(14.5,-15.,-1.));
#426=CARTESIAN_POINT('',(11.85,-15.,-1.));
#427=CARTESIAN_POINT('',(14.5,-15.,-2.));
#428=MECHANICAL_DESIGN_GEOMETRIC_PRESENTATION_REPRESENTATION('',(#247),
#429);
#429=(
GEOMETRIC_REPRESENTATION_CONTEXT(3)
GLOBAL_UNCERTAINTY_ASSIGNED_CONTEXT((#430))
GLOBAL_UNIT_ASSIGNED_CONTEXT((#433,#432,#431))
REPRESENTATION_CONTEXT('095AI20','TOP_LEVEL_ASSEMBLY_PART')
);
#430=UNCERTAINTY_MEASURE_WITH_UNIT(LENGTH_MEASURE(0.005),#433,
'DISTANCE_ACCURACY_VALUE','Maximum Tolerance applied to model');
#431=(
NAMED_UNIT(*)
SI_UNIT($,.STERADIAN.)
SOLID_ANGLE_UNIT()
);
#432=(
NAMED_UNIT(*)
PLANE_ANGLE_UNIT()
SI_UNIT($,.RADIAN.)
);
#433=(
LENGTH_UNIT()
NAMED_UNIT(*)
SI_UNIT(.MILLI.,.METRE.)
);
#434=PRODUCT_DEFINITION_SHAPE('','',#435);
#435=PRODUCT_DEFINITION('','',#437,#436);
#436=DESIGN_CONTEXT('',#443,'design');
#437=PRODUCT_DEFINITION_FORMATION_WITH_SPECIFIED_SOURCE('','',#439,
 .NOT_KNOWN.);
#438=PRODUCT_RELATED_PRODUCT_CATEGORY('','',(#439));
#439=PRODUCT('095AI20','095AI20','095AI20',(#441));
#440=PRODUCT_CATEGORY('','');
#441=MECHANICAL_CONTEXT('',#443,'mechanical');
#442=APPLICATION_PROTOCOL_DEFINITION('international standard',
'config_control_design',2010,#443);
#443=APPLICATION_CONTEXT(
'configuration controlled 3D designs of mechanical parts and assemblie
s');
ENDSEC;
END-ISO-10303-21;
