ISO-10303-21;
HEADER;
/* Generated by software containing ST-Developer
 * from STEP Tools, Inc. (www.steptools.com) 
 */

FILE_DESCRIPTION(
/* description */ (''),
/* implementation_level */ '2;1');

FILE_NAME(
/* name */ 
'Z:\\Modular Solution\\A-Profile System\\Parts\\Hardware\\M4\\M4X35LHS
CS-0\\M4X35LHSCS-0.step',
/* time_stamp */ '2024-10-22T15:11:54-04:00',
/* author */ ('JVann-Robertson'),
/* organization */ (''),
/* preprocessor_version */ 'ST-DEVELOPER v18.1',
/* originating_system */ 'AutoCAD Mechanical',
/* authorisation */ '');

FILE_SCHEMA (('AUTOMOTIVE_DESIGN { 1 0 10303 214 3 1 1 }'));
ENDSEC;

DATA;
#10=MECHANICAL_DESIGN_GEOMETRIC_PRESENTATION_REPRESENTATION('',(#14),#484);
#11=PRESENTATION_LAYER_ASSIGNMENT('0','0',(#15));
#12=SHAPE_REPRESENTATION_RELATIONSHIP('SRR','None',#490,#13);
#13=ADVANCED_BREP_SHAPE_REPRESENTATION('',(#15),#483);
#14=STYLED_ITEM('',(#499),#15);
#15=MANIFOLD_SOLID_BREP('1FB',#275);
#16=(
BOUNDED_CURVE()
B_SPLINE_CURVE(2,(#433,#434,#435),.UNSPECIFIED.,.F.,.F.)
B_SPLINE_CURVE_WITH_KNOTS((3,3),(-0.355324362692741,-0.127655147271305),
 .UNSPECIFIED.)
CURVE()
GEOMETRIC_REPRESENTATION_ITEM()
RATIONAL_B_SPLINE_CURVE((1.37128129211019,1.58341924626902,1.37128129211021))
REPRESENTATION_ITEM('')
);
#17=(
BOUNDED_CURVE()
B_SPLINE_CURVE(2,(#437,#438,#439),.UNSPECIFIED.,.F.,.F.)
B_SPLINE_CURVE_WITH_KNOTS((3,3),(-0.355324362692718,-0.127655147271296),
 .UNSPECIFIED.)
CURVE()
GEOMETRIC_REPRESENTATION_ITEM()
RATIONAL_B_SPLINE_CURVE((1.37128129211021,1.58341924626898,1.37128129211019))
REPRESENTATION_ITEM('')
);
#18=(
BOUNDED_CURVE()
B_SPLINE_CURVE(2,(#441,#442,#443),.UNSPECIFIED.,.F.,.F.)
B_SPLINE_CURVE_WITH_KNOTS((3,3),(-0.355324362692718,-0.127655147271284),
 .UNSPECIFIED.)
CURVE()
GEOMETRIC_REPRESENTATION_ITEM()
RATIONAL_B_SPLINE_CURVE((1.37128129211021,1.58341924626899,1.37128129211016))
REPRESENTATION_ITEM('')
);
#19=(
BOUNDED_CURVE()
B_SPLINE_CURVE(2,(#445,#446,#447),.UNSPECIFIED.,.F.,.F.)
B_SPLINE_CURVE_WITH_KNOTS((3,3),(-0.355324362692728,-0.127655147271284),
 .UNSPECIFIED.)
CURVE()
GEOMETRIC_REPRESENTATION_ITEM()
RATIONAL_B_SPLINE_CURVE((1.37128129211021,1.58341924626902,1.37128129211017))
REPRESENTATION_ITEM('')
);
#20=(
BOUNDED_CURVE()
B_SPLINE_CURVE(2,(#449,#450,#451),.UNSPECIFIED.,.F.,.F.)
B_SPLINE_CURVE_WITH_KNOTS((3,3),(-0.355324362692737,-0.127655147271288),
 .UNSPECIFIED.)
CURVE()
GEOMETRIC_REPRESENTATION_ITEM()
RATIONAL_B_SPLINE_CURVE((1.37128129211022,1.58341924626904,1.37128129211019))
REPRESENTATION_ITEM('')
);
#21=(
BOUNDED_CURVE()
B_SPLINE_CURVE(2,(#453,#454,#455),.UNSPECIFIED.,.F.,.F.)
B_SPLINE_CURVE_WITH_KNOTS((3,3),(-0.355324362692749,-0.127655147271293),
 .UNSPECIFIED.)
CURVE()
GEOMETRIC_REPRESENTATION_ITEM()
RATIONAL_B_SPLINE_CURVE((1.37128129211019,1.58341924626905,1.3712812921102))
REPRESENTATION_ITEM('')
);
#22=FACE_BOUND('',#62,.T.);
#23=FACE_BOUND('',#64,.T.);
#24=PLANE('',#283);
#25=PLANE('',#289);
#26=PLANE('',#296);
#27=PLANE('',#303);
#28=PLANE('',#304);
#29=PLANE('',#305);
#30=PLANE('',#306);
#31=PLANE('',#307);
#32=PLANE('',#308);
#33=PLANE('',#309);
#34=CYLINDRICAL_SURFACE('',#281,2.);
#35=CYLINDRICAL_SURFACE('',#287,3.5);
#36=FACE_OUTER_BOUND('',#56,.T.);
#37=FACE_OUTER_BOUND('',#57,.T.);
#38=FACE_OUTER_BOUND('',#58,.T.);
#39=FACE_OUTER_BOUND('',#59,.T.);
#40=FACE_OUTER_BOUND('',#60,.T.);
#41=FACE_OUTER_BOUND('',#61,.T.);
#42=FACE_OUTER_BOUND('',#63,.T.);
#43=FACE_OUTER_BOUND('',#65,.T.);
#44=FACE_OUTER_BOUND('',#66,.T.);
#45=FACE_OUTER_BOUND('',#67,.T.);
#46=FACE_OUTER_BOUND('',#68,.T.);
#47=FACE_OUTER_BOUND('',#69,.T.);
#48=FACE_OUTER_BOUND('',#70,.T.);
#49=FACE_OUTER_BOUND('',#71,.T.);
#50=FACE_OUTER_BOUND('',#72,.T.);
#51=FACE_OUTER_BOUND('',#73,.T.);
#52=FACE_OUTER_BOUND('',#74,.T.);
#53=FACE_OUTER_BOUND('',#75,.T.);
#54=FACE_OUTER_BOUND('',#76,.T.);
#55=FACE_OUTER_BOUND('',#77,.T.);
#56=EDGE_LOOP('',(#177,#178,#179,#180,#181));
#57=EDGE_LOOP('',(#182,#183,#184,#185,#186));
#58=EDGE_LOOP('',(#187));
#59=EDGE_LOOP('',(#188,#189,#190,#191));
#60=EDGE_LOOP('',(#192,#193,#194,#195));
#61=EDGE_LOOP('',(#196));
#62=EDGE_LOOP('',(#197,#198,#199,#200,#201,#202));
#63=EDGE_LOOP('',(#203));
#64=EDGE_LOOP('',(#204));
#65=EDGE_LOOP('',(#205,#206));
#66=EDGE_LOOP('',(#207,#208));
#67=EDGE_LOOP('',(#209,#210));
#68=EDGE_LOOP('',(#211,#212));
#69=EDGE_LOOP('',(#213,#214));
#70=EDGE_LOOP('',(#215,#216));
#71=EDGE_LOOP('',(#217,#218,#219,#220,#221,#222));
#72=EDGE_LOOP('',(#223,#224,#225,#226));
#73=EDGE_LOOP('',(#227,#228,#229,#230));
#74=EDGE_LOOP('',(#231,#232,#233,#234));
#75=EDGE_LOOP('',(#235,#236,#237,#238));
#76=EDGE_LOOP('',(#239,#240,#241,#242));
#77=EDGE_LOOP('',(#243,#244,#245,#246));
#78=LINE('',#401,#94);
#79=LINE('',#405,#95);
#80=LINE('',#412,#96);
#81=LINE('',#417,#97);
#82=LINE('',#459,#98);
#83=LINE('',#461,#99);
#84=LINE('',#463,#100);
#85=LINE('',#465,#101);
#86=LINE('',#467,#102);
#87=LINE('',#468,#103);
#88=LINE('',#470,#104);
#89=LINE('',#471,#105);
#90=LINE('',#473,#106);
#91=LINE('',#475,#107);
#92=LINE('',#477,#108);
#93=LINE('',#479,#109);
#94=VECTOR('',#318,1.8);
#95=VECTOR('',#323,2.);
#96=VECTOR('',#332,3.5);
#97=VECTOR('',#339,3.5);
#98=VECTOR('',#370,1.44337567297406);
#99=VECTOR('',#371,1.44337567297407);
#100=VECTOR('',#372,1.44337567297406);
#101=VECTOR('',#373,1.44337567297406);
#102=VECTOR('',#374,1.44337567297407);
#103=VECTOR('',#375,1.44337567297406);
#104=VECTOR('',#378,2.42);
#105=VECTOR('',#379,2.42);
#106=VECTOR('',#382,2.42000000000001);
#107=VECTOR('',#385,2.42000000000001);
#108=VECTOR('',#388,2.42);
#109=VECTOR('',#391,2.42);
#110=CIRCLE('',#278,2.);
#111=CIRCLE('',#279,2.);
#112=CIRCLE('',#280,1.6);
#113=CIRCLE('',#282,2.);
#114=CIRCLE('',#285,3.5);
#115=CIRCLE('',#286,3.15);
#116=CIRCLE('',#288,3.5);
#117=CIRCLE('',#290,1.44337567297401);
#118=CIRCLE('',#291,1.44337567297401);
#119=CIRCLE('',#292,1.44337567297401);
#120=CIRCLE('',#293,1.44337567297401);
#121=CIRCLE('',#294,1.44337567297401);
#122=CIRCLE('',#295,1.44337567297401);
#123=VERTEX_POINT('',#396);
#124=VERTEX_POINT('',#397);
#125=VERTEX_POINT('',#400);
#126=VERTEX_POINT('',#404);
#127=VERTEX_POINT('',#409);
#128=VERTEX_POINT('',#411);
#129=VERTEX_POINT('',#415);
#130=VERTEX_POINT('',#419);
#131=VERTEX_POINT('',#420);
#132=VERTEX_POINT('',#422);
#133=VERTEX_POINT('',#424);
#134=VERTEX_POINT('',#426);
#135=VERTEX_POINT('',#428);
#136=VERTEX_POINT('',#457);
#137=VERTEX_POINT('',#458);
#138=VERTEX_POINT('',#460);
#139=VERTEX_POINT('',#462);
#140=VERTEX_POINT('',#464);
#141=VERTEX_POINT('',#466);
#142=EDGE_CURVE('',#123,#124,#110,.T.);
#143=EDGE_CURVE('',#124,#123,#111,.T.);
#144=EDGE_CURVE('',#123,#125,#78,.T.);
#145=EDGE_CURVE('',#125,#125,#112,.T.);
#146=EDGE_CURVE('',#124,#126,#79,.T.);
#147=EDGE_CURVE('',#126,#126,#113,.T.);
#148=EDGE_CURVE('',#127,#127,#114,.T.);
#149=EDGE_CURVE('',#127,#128,#80,.T.);
#150=EDGE_CURVE('',#128,#128,#115,.T.);
#151=EDGE_CURVE('',#129,#129,#116,.T.);
#152=EDGE_CURVE('',#129,#127,#81,.T.);
#153=EDGE_CURVE('',#130,#131,#117,.T.);
#154=EDGE_CURVE('',#132,#130,#118,.T.);
#155=EDGE_CURVE('',#133,#132,#119,.T.);
#156=EDGE_CURVE('',#134,#133,#120,.T.);
#157=EDGE_CURVE('',#135,#134,#121,.T.);
#158=EDGE_CURVE('',#131,#135,#122,.T.);
#159=EDGE_CURVE('',#132,#133,#16,.T.);
#160=EDGE_CURVE('',#130,#132,#17,.T.);
#161=EDGE_CURVE('',#131,#130,#18,.T.);
#162=EDGE_CURVE('',#135,#131,#19,.T.);
#163=EDGE_CURVE('',#134,#135,#20,.T.);
#164=EDGE_CURVE('',#133,#134,#21,.T.);
#165=EDGE_CURVE('',#136,#137,#82,.T.);
#166=EDGE_CURVE('',#138,#136,#83,.T.);
#167=EDGE_CURVE('',#139,#138,#84,.T.);
#168=EDGE_CURVE('',#140,#139,#85,.T.);
#169=EDGE_CURVE('',#141,#140,#86,.T.);
#170=EDGE_CURVE('',#137,#141,#87,.T.);
#171=EDGE_CURVE('',#138,#132,#88,.T.);
#172=EDGE_CURVE('',#136,#133,#89,.T.);
#173=EDGE_CURVE('',#139,#130,#90,.T.);
#174=EDGE_CURVE('',#140,#131,#91,.T.);
#175=EDGE_CURVE('',#141,#135,#92,.T.);
#176=EDGE_CURVE('',#137,#134,#93,.T.);
#177=ORIENTED_EDGE('',*,*,#142,.T.);
#178=ORIENTED_EDGE('',*,*,#143,.T.);
#179=ORIENTED_EDGE('',*,*,#144,.T.);
#180=ORIENTED_EDGE('',*,*,#145,.T.);
#181=ORIENTED_EDGE('',*,*,#144,.F.);
#182=ORIENTED_EDGE('',*,*,#142,.F.);
#183=ORIENTED_EDGE('',*,*,#143,.F.);
#184=ORIENTED_EDGE('',*,*,#146,.T.);
#185=ORIENTED_EDGE('',*,*,#147,.T.);
#186=ORIENTED_EDGE('',*,*,#146,.F.);
#187=ORIENTED_EDGE('',*,*,#145,.F.);
#188=ORIENTED_EDGE('',*,*,#148,.F.);
#189=ORIENTED_EDGE('',*,*,#149,.T.);
#190=ORIENTED_EDGE('',*,*,#150,.T.);
#191=ORIENTED_EDGE('',*,*,#149,.F.);
#192=ORIENTED_EDGE('',*,*,#151,.F.);
#193=ORIENTED_EDGE('',*,*,#152,.T.);
#194=ORIENTED_EDGE('',*,*,#148,.T.);
#195=ORIENTED_EDGE('',*,*,#152,.F.);
#196=ORIENTED_EDGE('',*,*,#150,.F.);
#197=ORIENTED_EDGE('',*,*,#153,.F.);
#198=ORIENTED_EDGE('',*,*,#154,.F.);
#199=ORIENTED_EDGE('',*,*,#155,.F.);
#200=ORIENTED_EDGE('',*,*,#156,.F.);
#201=ORIENTED_EDGE('',*,*,#157,.F.);
#202=ORIENTED_EDGE('',*,*,#158,.F.);
#203=ORIENTED_EDGE('',*,*,#151,.T.);
#204=ORIENTED_EDGE('',*,*,#147,.F.);
#205=ORIENTED_EDGE('',*,*,#159,.T.);
#206=ORIENTED_EDGE('',*,*,#155,.T.);
#207=ORIENTED_EDGE('',*,*,#160,.T.);
#208=ORIENTED_EDGE('',*,*,#154,.T.);
#209=ORIENTED_EDGE('',*,*,#161,.T.);
#210=ORIENTED_EDGE('',*,*,#153,.T.);
#211=ORIENTED_EDGE('',*,*,#162,.T.);
#212=ORIENTED_EDGE('',*,*,#158,.T.);
#213=ORIENTED_EDGE('',*,*,#163,.T.);
#214=ORIENTED_EDGE('',*,*,#157,.T.);
#215=ORIENTED_EDGE('',*,*,#164,.T.);
#216=ORIENTED_EDGE('',*,*,#156,.T.);
#217=ORIENTED_EDGE('',*,*,#165,.F.);
#218=ORIENTED_EDGE('',*,*,#166,.F.);
#219=ORIENTED_EDGE('',*,*,#167,.F.);
#220=ORIENTED_EDGE('',*,*,#168,.F.);
#221=ORIENTED_EDGE('',*,*,#169,.F.);
#222=ORIENTED_EDGE('',*,*,#170,.F.);
#223=ORIENTED_EDGE('',*,*,#159,.F.);
#224=ORIENTED_EDGE('',*,*,#171,.F.);
#225=ORIENTED_EDGE('',*,*,#166,.T.);
#226=ORIENTED_EDGE('',*,*,#172,.T.);
#227=ORIENTED_EDGE('',*,*,#160,.F.);
#228=ORIENTED_EDGE('',*,*,#173,.F.);
#229=ORIENTED_EDGE('',*,*,#167,.T.);
#230=ORIENTED_EDGE('',*,*,#171,.T.);
#231=ORIENTED_EDGE('',*,*,#161,.F.);
#232=ORIENTED_EDGE('',*,*,#174,.F.);
#233=ORIENTED_EDGE('',*,*,#168,.T.);
#234=ORIENTED_EDGE('',*,*,#173,.T.);
#235=ORIENTED_EDGE('',*,*,#162,.F.);
#236=ORIENTED_EDGE('',*,*,#175,.F.);
#237=ORIENTED_EDGE('',*,*,#169,.T.);
#238=ORIENTED_EDGE('',*,*,#174,.T.);
#239=ORIENTED_EDGE('',*,*,#163,.F.);
#240=ORIENTED_EDGE('',*,*,#176,.F.);
#241=ORIENTED_EDGE('',*,*,#170,.T.);
#242=ORIENTED_EDGE('',*,*,#175,.T.);
#243=ORIENTED_EDGE('',*,*,#164,.F.);
#244=ORIENTED_EDGE('',*,*,#172,.F.);
#245=ORIENTED_EDGE('',*,*,#165,.T.);
#246=ORIENTED_EDGE('',*,*,#176,.T.);
#247=CONICAL_SURFACE('',#277,1.8,0.785398163397448);
#248=CONICAL_SURFACE('',#284,3.5,0.785398163397451);
#249=CONICAL_SURFACE('',#297,1.44337567297401,0.78539816339745);
#250=CONICAL_SURFACE('',#298,1.44337567297401,0.78539816339745);
#251=CONICAL_SURFACE('',#299,1.44337567297401,0.78539816339745);
#252=CONICAL_SURFACE('',#300,1.44337567297401,0.78539816339745);
#253=CONICAL_SURFACE('',#301,1.44337567297401,0.78539816339745);
#254=CONICAL_SURFACE('',#302,1.44337567297401,0.78539816339745);
#255=ADVANCED_FACE('',(#36),#247,.T.);
#256=ADVANCED_FACE('',(#37),#34,.T.);
#257=ADVANCED_FACE('',(#38),#24,.T.);
#258=ADVANCED_FACE('',(#39),#248,.T.);
#259=ADVANCED_FACE('',(#40),#35,.T.);
#260=ADVANCED_FACE('',(#41,#22),#25,.T.);
#261=ADVANCED_FACE('',(#42,#23),#26,.T.);
#262=ADVANCED_FACE('',(#43),#249,.F.);
#263=ADVANCED_FACE('',(#44),#250,.F.);
#264=ADVANCED_FACE('',(#45),#251,.F.);
#265=ADVANCED_FACE('',(#46),#252,.F.);
#266=ADVANCED_FACE('',(#47),#253,.F.);
#267=ADVANCED_FACE('',(#48),#254,.F.);
#268=ADVANCED_FACE('',(#49),#27,.F.);
#269=ADVANCED_FACE('',(#50),#28,.T.);
#270=ADVANCED_FACE('',(#51),#29,.T.);
#271=ADVANCED_FACE('',(#52),#30,.T.);
#272=ADVANCED_FACE('',(#53),#31,.T.);
#273=ADVANCED_FACE('',(#54),#32,.T.);
#274=ADVANCED_FACE('',(#55),#33,.T.);
#275=CLOSED_SHELL('',(#255,#256,#257,#258,#259,#260,#261,#262,#263,#264,
#265,#266,#267,#268,#269,#270,#271,#272,#273,#274));
#276=AXIS2_PLACEMENT_3D('placement',#394,#310,#311);
#277=AXIS2_PLACEMENT_3D('',#395,#312,#313);
#278=AXIS2_PLACEMENT_3D('',#398,#314,#315);
#279=AXIS2_PLACEMENT_3D('',#399,#316,#317);
#280=AXIS2_PLACEMENT_3D('',#402,#319,#320);
#281=AXIS2_PLACEMENT_3D('',#403,#321,#322);
#282=AXIS2_PLACEMENT_3D('',#406,#324,#325);
#283=AXIS2_PLACEMENT_3D('',#407,#326,#327);
#284=AXIS2_PLACEMENT_3D('',#408,#328,#329);
#285=AXIS2_PLACEMENT_3D('',#410,#330,#331);
#286=AXIS2_PLACEMENT_3D('',#413,#333,#334);
#287=AXIS2_PLACEMENT_3D('',#414,#335,#336);
#288=AXIS2_PLACEMENT_3D('',#416,#337,#338);
#289=AXIS2_PLACEMENT_3D('',#418,#340,#341);
#290=AXIS2_PLACEMENT_3D('',#421,#342,#343);
#291=AXIS2_PLACEMENT_3D('',#423,#344,#345);
#292=AXIS2_PLACEMENT_3D('',#425,#346,#347);
#293=AXIS2_PLACEMENT_3D('',#427,#348,#349);
#294=AXIS2_PLACEMENT_3D('',#429,#350,#351);
#295=AXIS2_PLACEMENT_3D('',#430,#352,#353);
#296=AXIS2_PLACEMENT_3D('',#431,#354,#355);
#297=AXIS2_PLACEMENT_3D('',#432,#356,#357);
#298=AXIS2_PLACEMENT_3D('',#436,#358,#359);
#299=AXIS2_PLACEMENT_3D('',#440,#360,#361);
#300=AXIS2_PLACEMENT_3D('',#444,#362,#363);
#301=AXIS2_PLACEMENT_3D('',#448,#364,#365);
#302=AXIS2_PLACEMENT_3D('',#452,#366,#367);
#303=AXIS2_PLACEMENT_3D('',#456,#368,#369);
#304=AXIS2_PLACEMENT_3D('',#469,#376,#377);
#305=AXIS2_PLACEMENT_3D('',#472,#380,#381);
#306=AXIS2_PLACEMENT_3D('',#474,#383,#384);
#307=AXIS2_PLACEMENT_3D('',#476,#386,#387);
#308=AXIS2_PLACEMENT_3D('',#478,#389,#390);
#309=AXIS2_PLACEMENT_3D('',#480,#392,#393);
#310=DIRECTION('axis',(0.,0.,1.));
#311=DIRECTION('refdir',(1.,0.,0.));
#312=DIRECTION('center_axis',(1.83697019872103E-16,0.,1.));
#313=DIRECTION('ref_axis',(6.988734475653E-33,-1.,0.));
#314=DIRECTION('center_axis',(-1.83697019872103E-16,0.,-1.));
#315=DIRECTION('ref_axis',(6.988734475653E-33,-1.,0.));
#316=DIRECTION('center_axis',(-1.83697019872103E-16,0.,-1.));
#317=DIRECTION('ref_axis',(6.988734475653E-33,-1.,0.));
#318=DIRECTION('',(-4.32978028117747E-17,-0.707106781186547,-0.707106781186548));
#319=DIRECTION('center_axis',(1.83697019872103E-16,0.,1.));
#320=DIRECTION('ref_axis',(6.93889390390723E-17,-1.,1.54074395550979E-32));
#321=DIRECTION('center_axis',(-1.83697019872103E-16,0.,-1.));
#322=DIRECTION('ref_axis',(-6.988734475653E-33,1.,0.));
#323=DIRECTION('',(1.83697019872103E-16,0.,1.));
#324=DIRECTION('center_axis',(-1.83697019872103E-16,0.,-1.));
#325=DIRECTION('ref_axis',(-6.988734475653E-33,1.,0.));
#326=DIRECTION('center_axis',(-1.83697019872103E-16,0.,-1.));
#327=DIRECTION('ref_axis',(-1.,-1.68722975549459E-32,1.83697019872103E-16));
#328=DIRECTION('center_axis',(-1.83697019872103E-16,0.,-1.));
#329=DIRECTION('ref_axis',(6.34413156928662E-17,1.,0.));
#330=DIRECTION('center_axis',(-1.83697019872103E-16,0.,-1.));
#331=DIRECTION('ref_axis',(6.34413156928662E-17,1.,0.));
#332=DIRECTION('',(2.61348798592695E-16,0.707106781186549,0.707106781186546));
#333=DIRECTION('center_axis',(-1.83697019872103E-16,0.,-1.));
#334=DIRECTION('ref_axis',(7.04903507698513E-17,1.,0.));
#335=DIRECTION('center_axis',(-1.83697019872103E-16,0.,-1.));
#336=DIRECTION('ref_axis',(-6.34413156928661E-17,1.,0.));
#337=DIRECTION('center_axis',(-1.83697019872103E-16,0.,-1.));
#338=DIRECTION('ref_axis',(6.34413156928661E-17,1.,2.81736037578933E-32));
#339=DIRECTION('',(1.83697019872103E-16,0.,1.));
#340=DIRECTION('center_axis',(1.83697019872103E-16,0.,1.));
#341=DIRECTION('ref_axis',(1.,1.68722975549459E-32,-1.83697019872103E-16));
#342=DIRECTION('center_axis',(1.83697019872103E-16,0.,1.));
#343=DIRECTION('ref_axis',(7.69185074553452E-17,-1.,-1.70793395993452E-32));
#344=DIRECTION('center_axis',(1.83697019872103E-16,0.,1.));
#345=DIRECTION('ref_axis',(7.69185074553452E-17,-1.,-1.70793395993452E-32));
#346=DIRECTION('center_axis',(1.83697019872103E-16,0.,1.));
#347=DIRECTION('ref_axis',(7.69185074553452E-17,-1.,-1.70793395993452E-32));
#348=DIRECTION('center_axis',(1.83697019872103E-16,0.,1.));
#349=DIRECTION('ref_axis',(7.69185074553452E-17,-1.,-1.70793395993452E-32));
#350=DIRECTION('center_axis',(1.83697019872103E-16,0.,1.));
#351=DIRECTION('ref_axis',(7.69185074553452E-17,-1.,-1.70793395993452E-32));
#352=DIRECTION('center_axis',(1.83697019872103E-16,0.,1.));
#353=DIRECTION('ref_axis',(7.69185074553452E-17,-1.,-1.70793395993452E-32));
#354=DIRECTION('center_axis',(-1.83697019872103E-16,0.,-1.));
#355=DIRECTION('ref_axis',(-1.,-1.68722975549459E-32,1.83697019872103E-16));
#356=DIRECTION('center_axis',(1.83697019872103E-16,0.,1.));
#357=DIRECTION('ref_axis',(7.69185074553452E-17,-1.,-1.70793395993452E-32));
#358=DIRECTION('center_axis',(1.83697019872103E-16,0.,1.));
#359=DIRECTION('ref_axis',(7.69185074553452E-17,-1.,-1.70793395993452E-32));
#360=DIRECTION('center_axis',(1.83697019872103E-16,0.,1.));
#361=DIRECTION('ref_axis',(7.69185074553452E-17,-1.,-1.70793395993452E-32));
#362=DIRECTION('center_axis',(1.83697019872103E-16,0.,1.));
#363=DIRECTION('ref_axis',(7.69185074553452E-17,-1.,-1.70793395993452E-32));
#364=DIRECTION('center_axis',(1.83697019872103E-16,0.,1.));
#365=DIRECTION('ref_axis',(7.69185074553452E-17,-1.,-1.70793395993452E-32));
#366=DIRECTION('center_axis',(1.83697019872103E-16,0.,1.));
#367=DIRECTION('ref_axis',(7.69185074553452E-17,-1.,-1.70793395993452E-32));
#368=DIRECTION('center_axis',(-1.83697019872103E-16,0.,-1.));
#369=DIRECTION('ref_axis',(-1.,-1.68722975549459E-32,1.83697019872103E-16));
#370=DIRECTION('',(0.866025403784439,0.5,-1.59086285808736E-16));
#371=DIRECTION('',(-6.98873447565301E-33,1.,-1.70793395993446E-32));
#372=DIRECTION('',(-0.866025403784438,0.5,1.59086285808736E-16));
#373=DIRECTION('',(-0.866025403784439,-0.5,1.59086285808736E-16));
#374=DIRECTION('',(6.98873447565301E-33,-1.,1.70793395993446E-32));
#375=DIRECTION('',(0.866025403784439,-0.5,-1.59086285808736E-16));
#376=DIRECTION('center_axis',(1.,1.68722975549459E-32,-1.83697019872103E-16));
#377=DIRECTION('ref_axis',(-1.83697019872103E-16,0.,-1.));
#378=DIRECTION('',(1.83697019872103E-16,0.,1.));
#379=DIRECTION('',(1.83697019872103E-16,0.,1.));
#380=DIRECTION('center_axis',(0.5,0.866025403784439,-9.18485099360515E-17));
#381=DIRECTION('ref_axis',(0.866025403784439,-0.5,-1.59086285808736E-16));
#382=DIRECTION('',(1.83697019872103E-16,0.,1.));
#383=DIRECTION('center_axis',(-0.5,0.866025403784439,9.18485099360515E-17));
#384=DIRECTION('ref_axis',(1.83697019872103E-16,0.,1.));
#385=DIRECTION('',(1.83697019872103E-16,0.,1.));
#386=DIRECTION('center_axis',(-1.,-1.68722975549459E-32,1.83697019872103E-16));
#387=DIRECTION('ref_axis',(1.83697019872103E-16,0.,1.));
#388=DIRECTION('',(1.83697019872103E-16,0.,1.));
#389=DIRECTION('center_axis',(-0.5,-0.866025403784439,9.18485099360515E-17));
#390=DIRECTION('ref_axis',(-0.866025403784439,0.5,1.59086285808736E-16));
#391=DIRECTION('',(1.83697019872103E-16,0.,1.));
#392=DIRECTION('center_axis',(0.5,-0.866025403784439,-9.18485099360515E-17));
#393=DIRECTION('ref_axis',(-1.83697019872103E-16,0.,-1.));
#394=CARTESIAN_POINT('',(0.,0.,0.));
#395=CARTESIAN_POINT('Origin',(-1.77635683940025E-15,0.,-34.8000000000002));
#396=CARTESIAN_POINT('',(-1.77635683940025E-15,2.,-34.5999999999999));
#397=CARTESIAN_POINT('',(-7.105427357601E-15,-2.,-34.5999999999999));
#398=CARTESIAN_POINT('Origin',(-1.77635683940025E-15,0.,-34.5999999999999));
#399=CARTESIAN_POINT('Origin',(-1.77635683940025E-15,0.,-34.5999999999999));
#400=CARTESIAN_POINT('',(-1.77635683940025E-15,1.59999999999991,-35.));
#401=CARTESIAN_POINT('',(-1.77635683940025E-15,1.80000000000018,-34.8000000000002));
#402=CARTESIAN_POINT('Origin',(-1.77635683940025E-15,0.,-35.));
#403=CARTESIAN_POINT('Origin',(0.,0.,-4.));
#404=CARTESIAN_POINT('',(0.,-2.,0.));
#405=CARTESIAN_POINT('',(0.,-2.,-4.));
#406=CARTESIAN_POINT('Origin',(0.,0.,0.));
#407=CARTESIAN_POINT('Origin',(-1.77635683940025E-15,0.,-35.));
#408=CARTESIAN_POINT('Origin',(0.,0.,2.44999999999982));
#409=CARTESIAN_POINT('',(0.,-3.5,2.44999999999982));
#410=CARTESIAN_POINT('Origin',(0.,0.,2.44999999999982));
#411=CARTESIAN_POINT('',(0.,-3.14999999999964,2.80000000000018));
#412=CARTESIAN_POINT('',(0.,-3.5,2.44999999999982));
#413=CARTESIAN_POINT('Origin',(0.,0.,2.80000000000018));
#414=CARTESIAN_POINT('Origin',(0.,0.,0.));
#415=CARTESIAN_POINT('',(0.,-3.5,0.));
#416=CARTESIAN_POINT('Origin',(0.,0.,0.));
#417=CARTESIAN_POINT('',(0.,-3.5,0.));
#418=CARTESIAN_POINT('Origin',(0.,3.15000000000009,2.80000000000018));
#419=CARTESIAN_POINT('',(-1.3855583347322E-13,-1.44337567297407,2.80000000000018));
#420=CARTESIAN_POINT('',(1.24999999999989,-0.721687836487035,2.80000000000018));
#421=CARTESIAN_POINT('Origin',(0.,0.,2.80000000000018));
#422=CARTESIAN_POINT('',(-1.25,-0.721687836487035,2.80000000000018));
#423=CARTESIAN_POINT('Origin',(0.,0.,2.80000000000018));
#424=CARTESIAN_POINT('',(-1.25,0.721687836487035,2.80000000000018));
#425=CARTESIAN_POINT('Origin',(0.,0.,2.80000000000018));
#426=CARTESIAN_POINT('',(3.73034936274053E-14,1.44337567297407,2.80000000000018));
#427=CARTESIAN_POINT('Origin',(0.,0.,2.80000000000018));
#428=CARTESIAN_POINT('',(1.25,0.721687836487035,2.80000000000018));
#429=CARTESIAN_POINT('Origin',(0.,0.,2.80000000000018));
#430=CARTESIAN_POINT('Origin',(0.,0.,2.80000000000018));
#431=CARTESIAN_POINT('Origin',(0.,3.5,0.));
#432=CARTESIAN_POINT('Origin',(0.,0.,2.80000000000018));
#433=CARTESIAN_POINT('Ctrl Pts',(-1.25,-0.721687836486993,2.8));
#434=CARTESIAN_POINT('Ctrl Pts',(-1.25,-3.8746783559418E-14,2.43915608175643));
#435=CARTESIAN_POINT('Ctrl Pts',(-1.25,0.721687836486889,2.79999999999995));
#436=CARTESIAN_POINT('Origin',(0.,0.,2.80000000000018));
#437=CARTESIAN_POINT('Ctrl Pts',(-1.42898736367061E-13,-1.44337567297405,
2.80000000000019));
#438=CARTESIAN_POINT('Ctrl Pts',(-0.625000000000048,-1.08253175473053,2.43915608175679));
#439=CARTESIAN_POINT('Ctrl Pts',(-1.24999999999997,-0.721687836487,2.80000000000024));
#440=CARTESIAN_POINT('Origin',(0.,0.,2.80000000000018));
#441=CARTESIAN_POINT('Ctrl Pts',(1.24999999999988,-0.721687836487051,2.80000000000019));
#442=CARTESIAN_POINT('Ctrl Pts',(0.624999999999952,-1.08253175473059,2.43915608175678));
#443=CARTESIAN_POINT('Ctrl Pts',(-2.37219998615017E-14,-1.44337567297415,
2.80000000000028));
#444=CARTESIAN_POINT('Origin',(0.,0.,2.80000000000018));
#445=CARTESIAN_POINT('Ctrl Pts',(1.25,0.721687836486888,2.79999999999995));
#446=CARTESIAN_POINT('Ctrl Pts',(1.25,-5.90083537588271E-14,2.43915608175642));
#447=CARTESIAN_POINT('Ctrl Pts',(1.25,-0.721687836487045,2.80000000000003));
#448=CARTESIAN_POINT('Origin',(0.,0.,2.80000000000018));
#449=CARTESIAN_POINT('Ctrl Pts',(4.19385526561685E-14,1.44337567297409,
2.79999999999997));
#450=CARTESIAN_POINT('Ctrl Pts',(0.625000000000016,1.08253175473054,2.43915608175641));
#451=CARTESIAN_POINT('Ctrl Pts',(1.25000000000001,0.721687836486969,2.80000000000001));
#452=CARTESIAN_POINT('Origin',(0.,0.,2.80000000000018));
#453=CARTESIAN_POINT('Ctrl Pts',(-1.25000000000001,0.721687836486967,2.80000000000001));
#454=CARTESIAN_POINT('Ctrl Pts',(-0.624999999999999,1.08253175473055,2.4391560817564));
#455=CARTESIAN_POINT('Ctrl Pts',(3.48138564520321E-15,1.44337567297412,
2.79999999999999));
#456=CARTESIAN_POINT('Origin',(0.,1.44337567297407,0.380000000000109));
#457=CARTESIAN_POINT('',(-1.25,0.721687836487035,0.380000000000109));
#458=CARTESIAN_POINT('',(0.,1.44337567297407,0.380000000000109));
#459=CARTESIAN_POINT('',(-1.25,0.721687836487035,0.380000000000109));
#460=CARTESIAN_POINT('',(-1.25,-0.721687836487035,0.380000000000109));
#461=CARTESIAN_POINT('',(-1.25,-0.721687836487035,0.380000000000109));
#462=CARTESIAN_POINT('',(0.,-1.44337567297407,0.380000000000109));
#463=CARTESIAN_POINT('',(0.,-1.44337567297407,0.380000000000109));
#464=CARTESIAN_POINT('',(1.25,-0.721687836487035,0.380000000000109));
#465=CARTESIAN_POINT('',(1.25,-0.721687836487035,0.380000000000109));
#466=CARTESIAN_POINT('',(1.25,0.721687836487035,0.380000000000109));
#467=CARTESIAN_POINT('',(1.25,0.721687836487035,0.380000000000109));
#468=CARTESIAN_POINT('',(0.,1.44337567297407,0.380000000000109));
#469=CARTESIAN_POINT('Origin',(-1.25,-0.721687836487035,0.380000000000109));
#470=CARTESIAN_POINT('',(-1.25,-0.721687836487035,0.380000000000109));
#471=CARTESIAN_POINT('',(-1.25,0.721687836487035,0.380000000000109));
#472=CARTESIAN_POINT('Origin',(0.,-1.44337567297407,0.380000000000109));
#473=CARTESIAN_POINT('',(0.,-1.44337567297407,0.380000000000109));
#474=CARTESIAN_POINT('Origin',(1.25,-0.721687836487035,0.380000000000109));
#475=CARTESIAN_POINT('',(1.25,-0.721687836487035,0.380000000000109));
#476=CARTESIAN_POINT('Origin',(1.25,0.721687836487035,0.380000000000109));
#477=CARTESIAN_POINT('',(1.25,0.721687836487035,0.380000000000109));
#478=CARTESIAN_POINT('Origin',(0.,1.44337567297407,0.380000000000109));
#479=CARTESIAN_POINT('',(0.,1.44337567297407,0.380000000000109));
#480=CARTESIAN_POINT('Origin',(-1.25,0.721687836487035,0.380000000000109));
#481=UNCERTAINTY_MEASURE_WITH_UNIT(LENGTH_MEASURE(0.001),#485,
'DISTANCE_ACCURACY_VALUE',
'Maximum model space distance between geometric entities at asserted c
onnectivities');
#482=UNCERTAINTY_MEASURE_WITH_UNIT(LENGTH_MEASURE(0.001),#485,
'DISTANCE_ACCURACY_VALUE',
'Maximum model space distance between geometric entities at asserted c
onnectivities');
#483=(
GEOMETRIC_REPRESENTATION_CONTEXT(3)
GLOBAL_UNCERTAINTY_ASSIGNED_CONTEXT((#481))
GLOBAL_UNIT_ASSIGNED_CONTEXT((#485,#486,#487))
REPRESENTATION_CONTEXT('','3D')
);
#484=(
GEOMETRIC_REPRESENTATION_CONTEXT(3)
GLOBAL_UNCERTAINTY_ASSIGNED_CONTEXT((#482))
GLOBAL_UNIT_ASSIGNED_CONTEXT((#485,#486,#487))
REPRESENTATION_CONTEXT('','3D')
);
#485=(
LENGTH_UNIT()
NAMED_UNIT(*)
SI_UNIT(.CENTI.,.METRE.)
);
#486=(
NAMED_UNIT(*)
PLANE_ANGLE_UNIT()
SI_UNIT($,.RADIAN.)
);
#487=(
NAMED_UNIT(*)
SI_UNIT($,.STERADIAN.)
SOLID_ANGLE_UNIT()
);
#488=SHAPE_DEFINITION_REPRESENTATION(#489,#490);
#489=PRODUCT_DEFINITION_SHAPE('',$,#492);
#490=SHAPE_REPRESENTATION('',(#276),#483);
#491=PRODUCT_DEFINITION_CONTEXT('part definition',#496,'design');
#492=PRODUCT_DEFINITION('Product','Product',#493,#491);
#493=PRODUCT_DEFINITION_FORMATION('',$,#498);
#494=PRODUCT_RELATED_PRODUCT_CATEGORY('Product','Product',(#498));
#495=APPLICATION_PROTOCOL_DEFINITION('international standard',
'automotive_design',2009,#496);
#496=APPLICATION_CONTEXT(
'Core Data for Automotive Mechanical Design Process');
#497=PRODUCT_CONTEXT('part definition',#496,'mechanical');
#498=PRODUCT('Product','Product',$,(#497));
#499=PRESENTATION_STYLE_ASSIGNMENT((#500));
#500=SURFACE_STYLE_USAGE(.BOTH.,#501);
#501=SURFACE_SIDE_STYLE('',(#502));
#502=SURFACE_STYLE_FILL_AREA(#503);
#503=FILL_AREA_STYLE('',(#504));
#504=FILL_AREA_STYLE_COLOUR('',#505);
#505=COLOUR_RGB('',1.,1.,1.);
ENDSEC;
END-ISO-10303-21;
