ISO-10303-21;
HEADER;
/* Generated by software containing ST-Developer
 * from STEP Tools, Inc. (www.steptools.com) 
 */

FILE_DESCRIPTION(
/* description */ (''),
/* implementation_level */ '2;1');

FILE_NAME(
/* name */ 
'Z:\\Modular Solution\\A-Profile System\\Parts\\Hardware\\M4\\M4X50BHC
S-0\\M4 x 50 BHCS.step',
/* time_stamp */ '2024-10-23T07:02:20-04:00',
/* author */ ('JVann-Robertson'),
/* organization */ (''),
/* preprocessor_version */ 'ST-DEVELOPER v18.1',
/* originating_system */ 'AutoCAD Mechanical',
/* authorisation */ '');

FILE_SCHEMA (('AUTOMOTIVE_DESIGN { 1 0 10303 214 3 1 1 }'));
ENDSEC;

DATA;
#10=MECHANICAL_DESIGN_GEOMETRIC_PRESENTATION_REPRESENTATION('',(#14),#494);
#11=PRESENTATION_LAYER_ASSIGNMENT('0','0',(#15));
#12=SHAPE_REPRESENTATION_RELATIONSHIP('SRR','None',#500,#13);
#13=ADVANCED_BREP_SHAPE_REPRESENTATION('',(#15),#493);
#14=STYLED_ITEM('',(#509),#15);
#15=MANIFOLD_SOLID_BREP('13D',#279);
#16=FACE_BOUND('',#65,.T.);
#17=FACE_BOUND('',#67,.T.);
#18=SPHERICAL_SURFACE('',#293,4.22922968981298);
#19=(
BOUNDED_CURVE()
B_SPLINE_CURVE(2,(#417,#418,#419),.UNSPECIFIED.,.F.,.F.)
B_SPLINE_CURVE_WITH_KNOTS((3,3),(-0.241489754982023,-0.127655147271297),
 .UNSPECIFIED.)
CURVE()
GEOMETRIC_REPRESENTATION_ITEM()
RATIONAL_B_SPLINE_CURVE((1.47735026918963,1.47735026918963,1.37128129211021))
REPRESENTATION_ITEM('')
);
#20=(
BOUNDED_CURVE()
B_SPLINE_CURVE(2,(#421,#422,#423),.UNSPECIFIED.,.F.,.F.)
B_SPLINE_CURVE_WITH_KNOTS((3,3),(-0.35532436269275,-0.241489754982023),
 .UNSPECIFIED.)
CURVE()
GEOMETRIC_REPRESENTATION_ITEM()
RATIONAL_B_SPLINE_CURVE((1.37128129211021,1.47735026918963,1.47735026918963))
REPRESENTATION_ITEM('')
);
#21=(
BOUNDED_CURVE()
B_SPLINE_CURVE(2,(#447,#448,#449),.UNSPECIFIED.,.F.,.F.)
B_SPLINE_CURVE_WITH_KNOTS((3,3),(-0.35532436269275,-0.127655147271297),
 .UNSPECIFIED.)
CURVE()
GEOMETRIC_REPRESENTATION_ITEM()
RATIONAL_B_SPLINE_CURVE((1.37128129211021,1.58341924626905,1.37128129211021))
REPRESENTATION_ITEM('')
);
#22=(
BOUNDED_CURVE()
B_SPLINE_CURVE(2,(#451,#452,#453),.UNSPECIFIED.,.F.,.F.)
B_SPLINE_CURVE_WITH_KNOTS((3,3),(-0.35532436269275,-0.127655147271297),
 .UNSPECIFIED.)
CURVE()
GEOMETRIC_REPRESENTATION_ITEM()
RATIONAL_B_SPLINE_CURVE((1.37128129211021,1.58341924626905,1.37128129211021))
REPRESENTATION_ITEM('')
);
#23=(
BOUNDED_CURVE()
B_SPLINE_CURVE(2,(#455,#456,#457),.UNSPECIFIED.,.F.,.F.)
B_SPLINE_CURVE_WITH_KNOTS((3,3),(-0.355324362692751,-0.127655147271297),
 .UNSPECIFIED.)
CURVE()
GEOMETRIC_REPRESENTATION_ITEM()
RATIONAL_B_SPLINE_CURVE((1.37128129211021,1.58341924626905,1.37128129211021))
REPRESENTATION_ITEM('')
);
#24=(
BOUNDED_CURVE()
B_SPLINE_CURVE(2,(#459,#460,#461),.UNSPECIFIED.,.F.,.F.)
B_SPLINE_CURVE_WITH_KNOTS((3,3),(-0.35532436269275,-0.127655147271297),
 .UNSPECIFIED.)
CURVE()
GEOMETRIC_REPRESENTATION_ITEM()
RATIONAL_B_SPLINE_CURVE((1.37128129211021,1.58341924626905,1.37128129211021))
REPRESENTATION_ITEM('')
);
#25=(
BOUNDED_CURVE()
B_SPLINE_CURVE(2,(#463,#464,#465),.UNSPECIFIED.,.F.,.F.)
B_SPLINE_CURVE_WITH_KNOTS((3,3),(-0.355324362692751,-0.127655147271297),
 .UNSPECIFIED.)
CURVE()
GEOMETRIC_REPRESENTATION_ITEM()
RATIONAL_B_SPLINE_CURVE((1.37128129211021,1.58341924626905,1.37128129211021))
REPRESENTATION_ITEM('')
);
#26=PLANE('',#287);
#27=PLANE('',#296);
#28=PLANE('',#302);
#29=PLANE('',#308);
#30=PLANE('',#309);
#31=PLANE('',#310);
#32=PLANE('',#311);
#33=PLANE('',#312);
#34=PLANE('',#313);
#35=PLANE('',#314);
#36=CYLINDRICAL_SURFACE('',#285,2.);
#37=CYLINDRICAL_SURFACE('',#290,3.8);
#38=FACE_OUTER_BOUND('',#58,.T.);
#39=FACE_OUTER_BOUND('',#59,.T.);
#40=FACE_OUTER_BOUND('',#60,.T.);
#41=FACE_OUTER_BOUND('',#61,.T.);
#42=FACE_OUTER_BOUND('',#62,.T.);
#43=FACE_OUTER_BOUND('',#63,.T.);
#44=FACE_OUTER_BOUND('',#64,.T.);
#45=FACE_OUTER_BOUND('',#66,.T.);
#46=FACE_OUTER_BOUND('',#68,.T.);
#47=FACE_OUTER_BOUND('',#69,.T.);
#48=FACE_OUTER_BOUND('',#70,.T.);
#49=FACE_OUTER_BOUND('',#71,.T.);
#50=FACE_OUTER_BOUND('',#72,.T.);
#51=FACE_OUTER_BOUND('',#73,.T.);
#52=FACE_OUTER_BOUND('',#74,.T.);
#53=FACE_OUTER_BOUND('',#75,.T.);
#54=FACE_OUTER_BOUND('',#76,.T.);
#55=FACE_OUTER_BOUND('',#77,.T.);
#56=FACE_OUTER_BOUND('',#78,.T.);
#57=FACE_OUTER_BOUND('',#79,.T.);
#58=EDGE_LOOP('',(#180,#181,#182,#183,#184));
#59=EDGE_LOOP('',(#185,#186,#187,#188,#189));
#60=EDGE_LOOP('',(#190));
#61=EDGE_LOOP('',(#191,#192,#193));
#62=EDGE_LOOP('',(#194,#195,#196,#197));
#63=EDGE_LOOP('',(#198,#199,#200,#201));
#64=EDGE_LOOP('',(#202));
#65=EDGE_LOOP('',(#203,#204,#205,#206,#207,#208));
#66=EDGE_LOOP('',(#209));
#67=EDGE_LOOP('',(#210));
#68=EDGE_LOOP('',(#211,#212));
#69=EDGE_LOOP('',(#213,#214));
#70=EDGE_LOOP('',(#215,#216));
#71=EDGE_LOOP('',(#217,#218));
#72=EDGE_LOOP('',(#219,#220));
#73=EDGE_LOOP('',(#221,#222,#223,#224,#225,#226));
#74=EDGE_LOOP('',(#227,#228,#229,#230,#231));
#75=EDGE_LOOP('',(#232,#233,#234,#235));
#76=EDGE_LOOP('',(#236,#237,#238,#239));
#77=EDGE_LOOP('',(#240,#241,#242,#243));
#78=EDGE_LOOP('',(#244,#245,#246,#247));
#79=EDGE_LOOP('',(#248,#249,#250,#251));
#80=LINE('',#407,#95);
#81=LINE('',#412,#96);
#82=LINE('',#429,#97);
#83=LINE('',#469,#98);
#84=LINE('',#471,#99);
#85=LINE('',#473,#100);
#86=LINE('',#475,#101);
#87=LINE('',#477,#102);
#88=LINE('',#478,#103);
#89=LINE('',#480,#104);
#90=LINE('',#481,#105);
#91=LINE('',#483,#106);
#92=LINE('',#485,#107);
#93=LINE('',#487,#108);
#94=LINE('',#489,#109);
#95=VECTOR('',#323,1.8);
#96=VECTOR('',#330,2.);
#97=VECTOR('',#341,3.8);
#98=VECTOR('',#376,1.44337567297406);
#99=VECTOR('',#377,1.44337567297406);
#100=VECTOR('',#378,1.44337567297406);
#101=VECTOR('',#379,1.44337567297406);
#102=VECTOR('',#380,1.44337567297406);
#103=VECTOR('',#381,1.44337567297406);
#104=VECTOR('',#384,1.54);
#105=VECTOR('',#385,1.54);
#106=VECTOR('',#388,1.54);
#107=VECTOR('',#391,1.54);
#108=VECTOR('',#394,1.54);
#109=VECTOR('',#397,1.54);
#110=CIRCLE('',#282,2.);
#111=CIRCLE('',#283,2.);
#112=CIRCLE('',#284,1.6);
#113=CIRCLE('',#286,2.);
#114=CIRCLE('',#289,1.44337567297406);
#115=CIRCLE('',#291,3.8);
#116=CIRCLE('',#292,3.8);
#117=CIRCLE('',#294,2.);
#118=CIRCLE('',#295,4.22922968981298);
#119=CIRCLE('',#297,1.44337567297406);
#120=CIRCLE('',#298,1.44337567297406);
#121=CIRCLE('',#299,1.44337567297406);
#122=CIRCLE('',#300,1.44337567297406);
#123=CIRCLE('',#301,1.44337567297406);
#124=VERTEX_POINT('',#402);
#125=VERTEX_POINT('',#403);
#126=VERTEX_POINT('',#406);
#127=VERTEX_POINT('',#410);
#128=VERTEX_POINT('',#415);
#129=VERTEX_POINT('',#416);
#130=VERTEX_POINT('',#420);
#131=VERTEX_POINT('',#426);
#132=VERTEX_POINT('',#428);
#133=VERTEX_POINT('',#432);
#134=VERTEX_POINT('',#436);
#135=VERTEX_POINT('',#437);
#136=VERTEX_POINT('',#439);
#137=VERTEX_POINT('',#442);
#138=VERTEX_POINT('',#467);
#139=VERTEX_POINT('',#468);
#140=VERTEX_POINT('',#470);
#141=VERTEX_POINT('',#472);
#142=VERTEX_POINT('',#474);
#143=VERTEX_POINT('',#476);
#144=EDGE_CURVE('',#124,#125,#110,.T.);
#145=EDGE_CURVE('',#125,#124,#111,.T.);
#146=EDGE_CURVE('',#124,#126,#80,.T.);
#147=EDGE_CURVE('',#126,#126,#112,.T.);
#148=EDGE_CURVE('',#127,#127,#113,.T.);
#149=EDGE_CURVE('',#127,#125,#81,.T.);
#150=EDGE_CURVE('',#128,#129,#19,.T.);
#151=EDGE_CURVE('',#130,#128,#20,.T.);
#152=EDGE_CURVE('',#130,#129,#114,.T.);
#153=EDGE_CURVE('',#131,#131,#115,.T.);
#154=EDGE_CURVE('',#131,#132,#82,.T.);
#155=EDGE_CURVE('',#132,#132,#116,.T.);
#156=EDGE_CURVE('',#133,#133,#117,.T.);
#157=EDGE_CURVE('',#133,#131,#118,.T.);
#158=EDGE_CURVE('',#134,#135,#119,.T.);
#159=EDGE_CURVE('',#136,#134,#120,.T.);
#160=EDGE_CURVE('',#129,#136,#121,.T.);
#161=EDGE_CURVE('',#137,#130,#122,.T.);
#162=EDGE_CURVE('',#135,#137,#123,.T.);
#163=EDGE_CURVE('',#129,#136,#21,.T.);
#164=EDGE_CURVE('',#136,#134,#22,.T.);
#165=EDGE_CURVE('',#134,#135,#23,.T.);
#166=EDGE_CURVE('',#135,#137,#24,.T.);
#167=EDGE_CURVE('',#137,#130,#25,.T.);
#168=EDGE_CURVE('',#138,#139,#83,.T.);
#169=EDGE_CURVE('',#139,#140,#84,.T.);
#170=EDGE_CURVE('',#140,#141,#85,.T.);
#171=EDGE_CURVE('',#141,#142,#86,.T.);
#172=EDGE_CURVE('',#142,#143,#87,.T.);
#173=EDGE_CURVE('',#143,#138,#88,.T.);
#174=EDGE_CURVE('',#139,#130,#89,.T.);
#175=EDGE_CURVE('',#140,#129,#90,.T.);
#176=EDGE_CURVE('',#141,#136,#91,.T.);
#177=EDGE_CURVE('',#142,#134,#92,.T.);
#178=EDGE_CURVE('',#143,#135,#93,.T.);
#179=EDGE_CURVE('',#138,#137,#94,.T.);
#180=ORIENTED_EDGE('',*,*,#144,.T.);
#181=ORIENTED_EDGE('',*,*,#145,.T.);
#182=ORIENTED_EDGE('',*,*,#146,.T.);
#183=ORIENTED_EDGE('',*,*,#147,.T.);
#184=ORIENTED_EDGE('',*,*,#146,.F.);
#185=ORIENTED_EDGE('',*,*,#148,.T.);
#186=ORIENTED_EDGE('',*,*,#149,.T.);
#187=ORIENTED_EDGE('',*,*,#144,.F.);
#188=ORIENTED_EDGE('',*,*,#145,.F.);
#189=ORIENTED_EDGE('',*,*,#149,.F.);
#190=ORIENTED_EDGE('',*,*,#147,.F.);
#191=ORIENTED_EDGE('',*,*,#150,.F.);
#192=ORIENTED_EDGE('',*,*,#151,.F.);
#193=ORIENTED_EDGE('',*,*,#152,.T.);
#194=ORIENTED_EDGE('',*,*,#153,.F.);
#195=ORIENTED_EDGE('',*,*,#154,.T.);
#196=ORIENTED_EDGE('',*,*,#155,.T.);
#197=ORIENTED_EDGE('',*,*,#154,.F.);
#198=ORIENTED_EDGE('',*,*,#156,.F.);
#199=ORIENTED_EDGE('',*,*,#157,.T.);
#200=ORIENTED_EDGE('',*,*,#153,.T.);
#201=ORIENTED_EDGE('',*,*,#157,.F.);
#202=ORIENTED_EDGE('',*,*,#156,.T.);
#203=ORIENTED_EDGE('',*,*,#158,.F.);
#204=ORIENTED_EDGE('',*,*,#159,.F.);
#205=ORIENTED_EDGE('',*,*,#160,.F.);
#206=ORIENTED_EDGE('',*,*,#152,.F.);
#207=ORIENTED_EDGE('',*,*,#161,.F.);
#208=ORIENTED_EDGE('',*,*,#162,.F.);
#209=ORIENTED_EDGE('',*,*,#155,.F.);
#210=ORIENTED_EDGE('',*,*,#148,.F.);
#211=ORIENTED_EDGE('',*,*,#160,.T.);
#212=ORIENTED_EDGE('',*,*,#163,.F.);
#213=ORIENTED_EDGE('',*,*,#159,.T.);
#214=ORIENTED_EDGE('',*,*,#164,.F.);
#215=ORIENTED_EDGE('',*,*,#158,.T.);
#216=ORIENTED_EDGE('',*,*,#165,.F.);
#217=ORIENTED_EDGE('',*,*,#162,.T.);
#218=ORIENTED_EDGE('',*,*,#166,.F.);
#219=ORIENTED_EDGE('',*,*,#161,.T.);
#220=ORIENTED_EDGE('',*,*,#167,.F.);
#221=ORIENTED_EDGE('',*,*,#168,.T.);
#222=ORIENTED_EDGE('',*,*,#169,.T.);
#223=ORIENTED_EDGE('',*,*,#170,.T.);
#224=ORIENTED_EDGE('',*,*,#171,.T.);
#225=ORIENTED_EDGE('',*,*,#172,.T.);
#226=ORIENTED_EDGE('',*,*,#173,.T.);
#227=ORIENTED_EDGE('',*,*,#174,.T.);
#228=ORIENTED_EDGE('',*,*,#151,.T.);
#229=ORIENTED_EDGE('',*,*,#150,.T.);
#230=ORIENTED_EDGE('',*,*,#175,.F.);
#231=ORIENTED_EDGE('',*,*,#169,.F.);
#232=ORIENTED_EDGE('',*,*,#175,.T.);
#233=ORIENTED_EDGE('',*,*,#163,.T.);
#234=ORIENTED_EDGE('',*,*,#176,.F.);
#235=ORIENTED_EDGE('',*,*,#170,.F.);
#236=ORIENTED_EDGE('',*,*,#176,.T.);
#237=ORIENTED_EDGE('',*,*,#164,.T.);
#238=ORIENTED_EDGE('',*,*,#177,.F.);
#239=ORIENTED_EDGE('',*,*,#171,.F.);
#240=ORIENTED_EDGE('',*,*,#177,.T.);
#241=ORIENTED_EDGE('',*,*,#165,.T.);
#242=ORIENTED_EDGE('',*,*,#178,.F.);
#243=ORIENTED_EDGE('',*,*,#172,.F.);
#244=ORIENTED_EDGE('',*,*,#178,.T.);
#245=ORIENTED_EDGE('',*,*,#166,.T.);
#246=ORIENTED_EDGE('',*,*,#179,.F.);
#247=ORIENTED_EDGE('',*,*,#173,.F.);
#248=ORIENTED_EDGE('',*,*,#179,.T.);
#249=ORIENTED_EDGE('',*,*,#167,.T.);
#250=ORIENTED_EDGE('',*,*,#174,.F.);
#251=ORIENTED_EDGE('',*,*,#168,.F.);
#252=CONICAL_SURFACE('',#281,1.8,0.785398163397448);
#253=CONICAL_SURFACE('',#288,1.44337567297406,0.78539816339745);
#254=CONICAL_SURFACE('',#303,1.44337567297406,0.78539816339745);
#255=CONICAL_SURFACE('',#304,1.44337567297406,0.78539816339745);
#256=CONICAL_SURFACE('',#305,1.44337567297406,0.78539816339745);
#257=CONICAL_SURFACE('',#306,1.44337567297406,0.78539816339745);
#258=CONICAL_SURFACE('',#307,1.44337567297406,0.78539816339745);
#259=ADVANCED_FACE('',(#38),#252,.T.);
#260=ADVANCED_FACE('',(#39),#36,.T.);
#261=ADVANCED_FACE('',(#40),#26,.F.);
#262=ADVANCED_FACE('',(#41),#253,.F.);
#263=ADVANCED_FACE('',(#42),#37,.T.);
#264=ADVANCED_FACE('',(#43),#18,.T.);
#265=ADVANCED_FACE('',(#44,#16),#27,.F.);
#266=ADVANCED_FACE('',(#45,#17),#28,.F.);
#267=ADVANCED_FACE('',(#46),#254,.F.);
#268=ADVANCED_FACE('',(#47),#255,.F.);
#269=ADVANCED_FACE('',(#48),#256,.F.);
#270=ADVANCED_FACE('',(#49),#257,.F.);
#271=ADVANCED_FACE('',(#50),#258,.F.);
#272=ADVANCED_FACE('',(#51),#29,.T.);
#273=ADVANCED_FACE('',(#52),#30,.F.);
#274=ADVANCED_FACE('',(#53),#31,.F.);
#275=ADVANCED_FACE('',(#54),#32,.F.);
#276=ADVANCED_FACE('',(#55),#33,.F.);
#277=ADVANCED_FACE('',(#56),#34,.F.);
#278=ADVANCED_FACE('',(#57),#35,.F.);
#279=CLOSED_SHELL('',(#259,#260,#261,#262,#263,#264,#265,#266,#267,#268,
#269,#270,#271,#272,#273,#274,#275,#276,#277,#278));
#280=AXIS2_PLACEMENT_3D('placement',#400,#315,#316);
#281=AXIS2_PLACEMENT_3D('',#401,#317,#318);
#282=AXIS2_PLACEMENT_3D('',#404,#319,#320);
#283=AXIS2_PLACEMENT_3D('',#405,#321,#322);
#284=AXIS2_PLACEMENT_3D('',#408,#324,#325);
#285=AXIS2_PLACEMENT_3D('',#409,#326,#327);
#286=AXIS2_PLACEMENT_3D('',#411,#328,#329);
#287=AXIS2_PLACEMENT_3D('',#413,#331,#332);
#288=AXIS2_PLACEMENT_3D('',#414,#333,#334);
#289=AXIS2_PLACEMENT_3D('',#424,#335,#336);
#290=AXIS2_PLACEMENT_3D('',#425,#337,#338);
#291=AXIS2_PLACEMENT_3D('',#427,#339,#340);
#292=AXIS2_PLACEMENT_3D('',#430,#342,#343);
#293=AXIS2_PLACEMENT_3D('',#431,#344,#345);
#294=AXIS2_PLACEMENT_3D('',#433,#346,#347);
#295=AXIS2_PLACEMENT_3D('',#434,#348,#349);
#296=AXIS2_PLACEMENT_3D('',#435,#350,#351);
#297=AXIS2_PLACEMENT_3D('',#438,#352,#353);
#298=AXIS2_PLACEMENT_3D('',#440,#354,#355);
#299=AXIS2_PLACEMENT_3D('',#441,#356,#357);
#300=AXIS2_PLACEMENT_3D('',#443,#358,#359);
#301=AXIS2_PLACEMENT_3D('',#444,#360,#361);
#302=AXIS2_PLACEMENT_3D('',#445,#362,#363);
#303=AXIS2_PLACEMENT_3D('',#446,#364,#365);
#304=AXIS2_PLACEMENT_3D('',#450,#366,#367);
#305=AXIS2_PLACEMENT_3D('',#454,#368,#369);
#306=AXIS2_PLACEMENT_3D('',#458,#370,#371);
#307=AXIS2_PLACEMENT_3D('',#462,#372,#373);
#308=AXIS2_PLACEMENT_3D('',#466,#374,#375);
#309=AXIS2_PLACEMENT_3D('',#479,#382,#383);
#310=AXIS2_PLACEMENT_3D('',#482,#386,#387);
#311=AXIS2_PLACEMENT_3D('',#484,#389,#390);
#312=AXIS2_PLACEMENT_3D('',#486,#392,#393);
#313=AXIS2_PLACEMENT_3D('',#488,#395,#396);
#314=AXIS2_PLACEMENT_3D('',#490,#398,#399);
#315=DIRECTION('axis',(0.,0.,1.));
#316=DIRECTION('refdir',(1.,0.,0.));
#317=DIRECTION('center_axis',(0.,0.,1.));
#318=DIRECTION('ref_axis',(-1.,0.,0.));
#319=DIRECTION('center_axis',(0.,0.,-1.));
#320=DIRECTION('ref_axis',(-1.,0.,0.));
#321=DIRECTION('center_axis',(0.,0.,-1.));
#322=DIRECTION('ref_axis',(-1.,0.,0.));
#323=DIRECTION('',(-0.707106781186547,-8.65956056235493E-17,-0.707106781186548));
#324=DIRECTION('center_axis',(0.,0.,1.));
#325=DIRECTION('ref_axis',(-1.,0.,0.));
#326=DIRECTION('center_axis',(0.,0.,1.));
#327=DIRECTION('ref_axis',(1.,0.,0.));
#328=DIRECTION('center_axis',(0.,0.,-1.));
#329=DIRECTION('ref_axis',(1.,0.,0.));
#330=DIRECTION('',(0.,0.,-1.));
#331=DIRECTION('center_axis',(0.,0.,1.));
#332=DIRECTION('ref_axis',(1.,0.,0.));
#333=DIRECTION('center_axis',(0.,0.,1.));
#334=DIRECTION('ref_axis',(1.,0.,0.));
#335=DIRECTION('center_axis',(0.,0.,1.));
#336=DIRECTION('ref_axis',(1.,0.,0.));
#337=DIRECTION('center_axis',(0.,0.,1.));
#338=DIRECTION('ref_axis',(1.,0.,0.));
#339=DIRECTION('center_axis',(0.,0.,1.));
#340=DIRECTION('ref_axis',(1.,0.,0.));
#341=DIRECTION('',(0.,0.,-1.));
#342=DIRECTION('center_axis',(0.,0.,1.));
#343=DIRECTION('ref_axis',(1.,0.,0.));
#344=DIRECTION('center_axis',(6.12323399573677E-17,0.,1.));
#345=DIRECTION('ref_axis',(1.,0.,0.));
#346=DIRECTION('center_axis',(0.,0.,1.));
#347=DIRECTION('ref_axis',(1.,0.,0.));
#348=DIRECTION('center_axis',(1.22464679914735E-16,-1.,0.));
#349=DIRECTION('ref_axis',(-1.,-1.22464679914735E-16,0.));
#350=DIRECTION('center_axis',(0.,0.,-1.));
#351=DIRECTION('ref_axis',(-1.,0.,0.));
#352=DIRECTION('center_axis',(0.,0.,1.));
#353=DIRECTION('ref_axis',(1.,0.,0.));
#354=DIRECTION('center_axis',(0.,0.,1.));
#355=DIRECTION('ref_axis',(1.,0.,0.));
#356=DIRECTION('center_axis',(0.,0.,1.));
#357=DIRECTION('ref_axis',(1.,0.,0.));
#358=DIRECTION('center_axis',(0.,0.,1.));
#359=DIRECTION('ref_axis',(1.,0.,0.));
#360=DIRECTION('center_axis',(0.,0.,1.));
#361=DIRECTION('ref_axis',(1.,0.,0.));
#362=DIRECTION('center_axis',(0.,0.,1.));
#363=DIRECTION('ref_axis',(1.,0.,0.));
#364=DIRECTION('center_axis',(0.,0.,1.));
#365=DIRECTION('ref_axis',(1.,0.,0.));
#366=DIRECTION('center_axis',(0.,0.,1.));
#367=DIRECTION('ref_axis',(1.,0.,0.));
#368=DIRECTION('center_axis',(0.,0.,1.));
#369=DIRECTION('ref_axis',(-1.,1.22464679914735E-16,0.));
#370=DIRECTION('center_axis',(0.,0.,1.));
#371=DIRECTION('ref_axis',(1.,0.,0.));
#372=DIRECTION('center_axis',(0.,0.,1.));
#373=DIRECTION('ref_axis',(1.,0.,0.));
#374=DIRECTION('center_axis',(0.,0.,1.));
#375=DIRECTION('ref_axis',(1.,0.,0.));
#376=DIRECTION('',(0.866025403784438,0.500000000000001,0.));
#377=DIRECTION('',(0.,1.,0.));
#378=DIRECTION('',(-0.866025403784439,0.5,0.));
#379=DIRECTION('',(-0.866025403784438,-0.500000000000001,0.));
#380=DIRECTION('',(0.,-1.,0.));
#381=DIRECTION('',(0.866025403784439,-0.5,0.));
#382=DIRECTION('center_axis',(1.,0.,0.));
#383=DIRECTION('ref_axis',(0.,0.,-1.));
#384=DIRECTION('',(0.,0.,1.));
#385=DIRECTION('',(0.,0.,1.));
#386=DIRECTION('center_axis',(0.5,0.866025403784439,0.));
#387=DIRECTION('ref_axis',(0.,0.,1.));
#388=DIRECTION('',(0.,0.,1.));
#389=DIRECTION('center_axis',(-0.5,0.866025403784438,0.));
#390=DIRECTION('ref_axis',(0.,0.,1.));
#391=DIRECTION('',(0.,0.,1.));
#392=DIRECTION('center_axis',(-1.,0.,0.));
#393=DIRECTION('ref_axis',(0.,0.,1.));
#394=DIRECTION('',(0.,0.,1.));
#395=DIRECTION('center_axis',(-0.5,-0.866025403784439,0.));
#396=DIRECTION('ref_axis',(0.,0.,1.));
#397=DIRECTION('',(0.,0.,1.));
#398=DIRECTION('center_axis',(0.500000000000001,-0.866025403784438,0.));
#399=DIRECTION('ref_axis',(0.,0.,-1.));
#400=CARTESIAN_POINT('',(0.,0.,0.));
#401=CARTESIAN_POINT('Origin',(-6.98048675513991E-15,0.,-49.8));
#402=CARTESIAN_POINT('',(1.99999999999999,-2.44929359829471E-16,-49.6));
#403=CARTESIAN_POINT('',(-2.,-2.44929359829471E-16,-49.6));
#404=CARTESIAN_POINT('Origin',(-6.98048675513991E-15,0.,-49.6));
#405=CARTESIAN_POINT('Origin',(-6.98048675513991E-15,0.,-49.6));
#406=CARTESIAN_POINT('',(1.59999999999999,1.95943487863577E-16,-50.));
#407=CARTESIAN_POINT('',(1.79999999999999,2.20436423846524E-16,-49.8));
#408=CARTESIAN_POINT('Origin',(-6.98048675513991E-15,0.,-50.));
#409=CARTESIAN_POINT('Origin',(0.,0.,-12.));
#410=CARTESIAN_POINT('',(-2.,-2.44929359829471E-16,0.));
#411=CARTESIAN_POINT('Origin',(0.,0.,0.));
#412=CARTESIAN_POINT('',(-2.,-2.44929359829471E-16,-12.));
#413=CARTESIAN_POINT('Origin',(-6.98048675513991E-15,0.,-50.));
#414=CARTESIAN_POINT('Origin',(0.,0.,2.2));
#415=CARTESIAN_POINT('',(1.25,-1.71971677338181E-25,2.00662432702594));
#416=CARTESIAN_POINT('',(1.25,0.721687836487033,2.2));
#417=CARTESIAN_POINT('Ctrl Pts',(1.25,1.80359073583948E-15,2.00662432702594));
#418=CARTESIAN_POINT('Ctrl Pts',(1.25,0.334936490538903,2.00662432702594));
#419=CARTESIAN_POINT('Ctrl Pts',(1.25,0.721687836487028,2.2));
#420=CARTESIAN_POINT('',(1.25,-0.721687836487033,2.2));
#421=CARTESIAN_POINT('Ctrl Pts',(1.25,-0.721687836487026,2.2));
#422=CARTESIAN_POINT('Ctrl Pts',(1.25,-0.3349364905389,2.00662432702594));
#423=CARTESIAN_POINT('Ctrl Pts',(1.25,1.80359073583948E-15,2.00662432702594));
#424=CARTESIAN_POINT('Origin',(0.,0.,2.2));
#425=CARTESIAN_POINT('Origin',(0.,0.,2.2));
#426=CARTESIAN_POINT('',(-3.8,-4.65365783675994E-16,0.330000000000001));
#427=CARTESIAN_POINT('Origin',(0.,0.,0.330000000000001));
#428=CARTESIAN_POINT('',(-3.8,-4.65365783675994E-16,0.));
#429=CARTESIAN_POINT('',(-3.8,-4.65365783675994E-16,2.2));
#430=CARTESIAN_POINT('Origin',(0.,0.,0.));
#431=CARTESIAN_POINT('Origin',(-9.08513196663917E-30,1.30104260698261E-15,
-1.52644385026738));
#432=CARTESIAN_POINT('',(-2.,1.05611324715313E-15,2.2));
#433=CARTESIAN_POINT('Origin',(0.,0.,2.2));
#434=CARTESIAN_POINT('Origin',(-9.08513196663917E-30,1.30104260698261E-15,
-1.52644385026738));
#435=CARTESIAN_POINT('Origin',(1.39659253553726E-14,-2.,2.2));
#436=CARTESIAN_POINT('',(-1.25,0.721687836487032,2.2));
#437=CARTESIAN_POINT('',(-1.25,-0.721687836487033,2.2));
#438=CARTESIAN_POINT('Origin',(0.,0.,2.2));
#439=CARTESIAN_POINT('',(-4.33680868994202E-16,1.44337567297406,2.2));
#440=CARTESIAN_POINT('Origin',(0.,0.,2.2));
#441=CARTESIAN_POINT('Origin',(0.,0.,2.2));
#442=CARTESIAN_POINT('',(0.,-1.44337567297406,2.2));
#443=CARTESIAN_POINT('Origin',(0.,0.,2.2));
#444=CARTESIAN_POINT('Origin',(0.,0.,2.2));
#445=CARTESIAN_POINT('Origin',(2.65352581752078E-14,-3.8,8.88178419700125E-16));
#446=CARTESIAN_POINT('Origin',(0.,0.,2.2));
#447=CARTESIAN_POINT('Ctrl Pts',(1.25,0.721687836487035,2.2));
#448=CARTESIAN_POINT('Ctrl Pts',(0.625,1.08253175473055,1.83915608175649));
#449=CARTESIAN_POINT('Ctrl Pts',(3.5218668736358E-15,1.44337567297406,2.2));
#450=CARTESIAN_POINT('Origin',(0.,0.,2.2));
#451=CARTESIAN_POINT('Ctrl Pts',(-4.3719726707203E-15,1.44337567297406,
2.2));
#452=CARTESIAN_POINT('Ctrl Pts',(-0.625,1.08253175473055,1.83915608175649));
#453=CARTESIAN_POINT('Ctrl Pts',(-1.25,0.721687836487034,2.2));
#454=CARTESIAN_POINT('Origin',(0.,0.,2.2));
#455=CARTESIAN_POINT('Ctrl Pts',(-1.25,0.721687836487029,2.2));
#456=CARTESIAN_POINT('Ctrl Pts',(-1.25,6.66133814775094E-16,1.83915608175649));
#457=CARTESIAN_POINT('Ctrl Pts',(-1.25,-0.721687836487028,2.2));
#458=CARTESIAN_POINT('Origin',(0.,0.,2.2));
#459=CARTESIAN_POINT('Ctrl Pts',(-1.24999999999999,-0.721687836487036,2.2));
#460=CARTESIAN_POINT('Ctrl Pts',(-0.624999999999999,-1.08253175473055,1.83915608175649));
#461=CARTESIAN_POINT('Ctrl Pts',(-4.65534126974847E-15,-1.44337567297406,
2.2));
#462=CARTESIAN_POINT('Origin',(0.,0.,2.2));
#463=CARTESIAN_POINT('Ctrl Pts',(3.19801704617504E-15,-1.44337567297406,
2.2));
#464=CARTESIAN_POINT('Ctrl Pts',(0.625,-1.08253175473055,1.83915608175649));
#465=CARTESIAN_POINT('Ctrl Pts',(1.25,-0.721687836487034,2.2));
#466=CARTESIAN_POINT('Origin',(1.25,-0.721687836487032,0.660000000000001));
#467=CARTESIAN_POINT('',(2.29319927001321E-16,-1.44337567297406,0.660000000000001));
#468=CARTESIAN_POINT('',(1.25,-0.721687836487032,0.660000000000001));
#469=CARTESIAN_POINT('',(2.29319927001321E-16,-1.44337567297406,0.660000000000001));
#470=CARTESIAN_POINT('',(1.25,0.721687836487033,0.660000000000001));
#471=CARTESIAN_POINT('',(1.25,-0.721687836487032,0.660000000000001));
#472=CARTESIAN_POINT('',(-3.62185972980807E-16,1.44337567297406,0.660000000000001));
#473=CARTESIAN_POINT('',(1.25,0.721687836487033,0.660000000000001));
#474=CARTESIAN_POINT('',(-1.25,0.721687836487032,0.660000000000001));
#475=CARTESIAN_POINT('',(-3.62185972980807E-16,1.44337567297406,0.660000000000001));
#476=CARTESIAN_POINT('',(-1.25,-0.721687836487032,0.660000000000001));
#477=CARTESIAN_POINT('',(-1.25,0.721687836487032,0.660000000000001));
#478=CARTESIAN_POINT('',(-1.25,-0.721687836487032,0.660000000000001));
#479=CARTESIAN_POINT('Origin',(1.25,-0.721687836487032,0.660000000000001));
#480=CARTESIAN_POINT('',(1.25,-0.721687836487032,0.660000000000001));
#481=CARTESIAN_POINT('',(1.25,0.721687836487033,0.660000000000001));
#482=CARTESIAN_POINT('Origin',(1.25,0.721687836487033,0.660000000000001));
#483=CARTESIAN_POINT('',(-3.62185972980807E-16,1.44337567297406,0.660000000000001));
#484=CARTESIAN_POINT('Origin',(-3.62185972980807E-16,1.44337567297406,0.660000000000001));
#485=CARTESIAN_POINT('',(-1.25,0.721687836487032,0.660000000000001));
#486=CARTESIAN_POINT('Origin',(-1.25,0.721687836487032,0.660000000000001));
#487=CARTESIAN_POINT('',(-1.25,-0.721687836487032,0.660000000000001));
#488=CARTESIAN_POINT('Origin',(-1.25,-0.721687836487032,0.660000000000001));
#489=CARTESIAN_POINT('',(2.29319927001321E-16,-1.44337567297406,0.660000000000001));
#490=CARTESIAN_POINT('Origin',(2.29319927001321E-16,-1.44337567297406,0.660000000000001));
#491=UNCERTAINTY_MEASURE_WITH_UNIT(LENGTH_MEASURE(0.001),#495,
'DISTANCE_ACCURACY_VALUE',
'Maximum model space distance between geometric entities at asserted c
onnectivities');
#492=UNCERTAINTY_MEASURE_WITH_UNIT(LENGTH_MEASURE(0.001),#495,
'DISTANCE_ACCURACY_VALUE',
'Maximum model space distance between geometric entities at asserted c
onnectivities');
#493=(
GEOMETRIC_REPRESENTATION_CONTEXT(3)
GLOBAL_UNCERTAINTY_ASSIGNED_CONTEXT((#491))
GLOBAL_UNIT_ASSIGNED_CONTEXT((#495,#496,#497))
REPRESENTATION_CONTEXT('','3D')
);
#494=(
GEOMETRIC_REPRESENTATION_CONTEXT(3)
GLOBAL_UNCERTAINTY_ASSIGNED_CONTEXT((#492))
GLOBAL_UNIT_ASSIGNED_CONTEXT((#495,#496,#497))
REPRESENTATION_CONTEXT('','3D')
);
#495=(
LENGTH_UNIT()
NAMED_UNIT(*)
SI_UNIT(.CENTI.,.METRE.)
);
#496=(
NAMED_UNIT(*)
PLANE_ANGLE_UNIT()
SI_UNIT($,.RADIAN.)
);
#497=(
NAMED_UNIT(*)
SI_UNIT($,.STERADIAN.)
SOLID_ANGLE_UNIT()
);
#498=SHAPE_DEFINITION_REPRESENTATION(#499,#500);
#499=PRODUCT_DEFINITION_SHAPE('',$,#502);
#500=SHAPE_REPRESENTATION('',(#280),#493);
#501=PRODUCT_DEFINITION_CONTEXT('part definition',#506,'design');
#502=PRODUCT_DEFINITION('Product','Product',#503,#501);
#503=PRODUCT_DEFINITION_FORMATION('',$,#508);
#504=PRODUCT_RELATED_PRODUCT_CATEGORY('Product','Product',(#508));
#505=APPLICATION_PROTOCOL_DEFINITION('international standard',
'automotive_design',2009,#506);
#506=APPLICATION_CONTEXT(
'Core Data for Automotive Mechanical Design Process');
#507=PRODUCT_CONTEXT('part definition',#506,'mechanical');
#508=PRODUCT('Product','Product',$,(#507));
#509=PRESENTATION_STYLE_ASSIGNMENT((#510));
#510=SURFACE_STYLE_USAGE(.BOTH.,#511);
#511=SURFACE_SIDE_STYLE('',(#512));
#512=SURFACE_STYLE_FILL_AREA(#513);
#513=FILL_AREA_STYLE('',(#514));
#514=FILL_AREA_STYLE_COLOUR('',#515);
#515=COLOUR_RGB('',1.,1.,1.);
ENDSEC;
END-ISO-10303-21;
