ISO-10303-21;
HEADER;
/* Generated by software containing ST-Developer
 * from STEP Tools, Inc. (www.steptools.com) 
 */

FILE_DESCRIPTION(
/* description */ (''),
/* implementation_level */ '2;1');

FILE_NAME(
/* name */ 
'Z:\\Modular Solution\\A-Profile System\\Parts\\Hardware\\M5\\M5FW-0\\
M5 Flat Washer.step',
/* time_stamp */ '2024-10-22T13:50:38-04:00',
/* author */ ('JVann-Robertson'),
/* organization */ (''),
/* preprocessor_version */ 'ST-DEVELOPER v18.1',
/* originating_system */ 'AutoCAD Mechanical',
/* authorisation */ '');

FILE_SCHEMA (('AUTOMOTIVE_DESIGN { 1 0 10303 214 3 1 1 }'));
ENDSEC;

DATA;
#10=MECHANICAL_DESIGN_GEOMETRIC_PRESENTATION_REPRESENTATION('',(#14),#114);
#11=PRESENTATION_LAYER_ASSIGNMENT('0','0',(#15));
#12=SHAPE_REPRESENTATION_RELATIONSHIP('SRR','None',#120,#13);
#13=ADVANCED_BREP_SHAPE_REPRESENTATION('',(#15),#113);
#14=STYLED_ITEM('',(#129),#15);
#15=MANIFOLD_SOLID_BREP('1C3',#66);
#16=FACE_BOUND('',#27,.T.);
#17=FACE_BOUND('',#29,.T.);
#18=PLANE('',#74);
#19=PLANE('',#75);
#20=FACE_OUTER_BOUND('',#24,.T.);
#21=FACE_OUTER_BOUND('',#25,.T.);
#22=FACE_OUTER_BOUND('',#26,.T.);
#23=FACE_OUTER_BOUND('',#28,.T.);
#24=EDGE_LOOP('',(#48,#49,#50,#51));
#25=EDGE_LOOP('',(#52,#53,#54,#55));
#26=EDGE_LOOP('',(#56));
#27=EDGE_LOOP('',(#57));
#28=EDGE_LOOP('',(#58));
#29=EDGE_LOOP('',(#59));
#30=LINE('',#101,#32);
#31=LINE('',#107,#33);
#32=VECTOR('',#82,2.65);
#33=VECTOR('',#89,5.);
#34=CIRCLE('',#69,2.65);
#35=CIRCLE('',#70,2.65);
#36=CIRCLE('',#72,5.);
#37=CIRCLE('',#73,5.);
#38=VERTEX_POINT('',#98);
#39=VERTEX_POINT('',#100);
#40=VERTEX_POINT('',#104);
#41=VERTEX_POINT('',#106);
#42=EDGE_CURVE('',#38,#38,#34,.T.);
#43=EDGE_CURVE('',#38,#39,#30,.T.);
#44=EDGE_CURVE('',#39,#39,#35,.T.);
#45=EDGE_CURVE('',#40,#40,#36,.T.);
#46=EDGE_CURVE('',#40,#41,#31,.T.);
#47=EDGE_CURVE('',#41,#41,#37,.T.);
#48=ORIENTED_EDGE('',*,*,#42,.T.);
#49=ORIENTED_EDGE('',*,*,#43,.T.);
#50=ORIENTED_EDGE('',*,*,#44,.T.);
#51=ORIENTED_EDGE('',*,*,#43,.F.);
#52=ORIENTED_EDGE('',*,*,#45,.T.);
#53=ORIENTED_EDGE('',*,*,#46,.T.);
#54=ORIENTED_EDGE('',*,*,#47,.T.);
#55=ORIENTED_EDGE('',*,*,#46,.F.);
#56=ORIENTED_EDGE('',*,*,#45,.F.);
#57=ORIENTED_EDGE('',*,*,#42,.F.);
#58=ORIENTED_EDGE('',*,*,#47,.F.);
#59=ORIENTED_EDGE('',*,*,#44,.F.);
#60=CYLINDRICAL_SURFACE('',#68,2.65);
#61=CYLINDRICAL_SURFACE('',#71,5.);
#62=ADVANCED_FACE('',(#20),#60,.F.);
#63=ADVANCED_FACE('',(#21),#61,.T.);
#64=ADVANCED_FACE('',(#22,#16),#18,.T.);
#65=ADVANCED_FACE('',(#23,#17),#19,.F.);
#66=CLOSED_SHELL('',(#62,#63,#64,#65));
#67=AXIS2_PLACEMENT_3D('placement',#96,#76,#77);
#68=AXIS2_PLACEMENT_3D('',#97,#78,#79);
#69=AXIS2_PLACEMENT_3D('',#99,#80,#81);
#70=AXIS2_PLACEMENT_3D('',#102,#83,#84);
#71=AXIS2_PLACEMENT_3D('',#103,#85,#86);
#72=AXIS2_PLACEMENT_3D('',#105,#87,#88);
#73=AXIS2_PLACEMENT_3D('',#108,#90,#91);
#74=AXIS2_PLACEMENT_3D('',#109,#92,#93);
#75=AXIS2_PLACEMENT_3D('',#110,#94,#95);
#76=DIRECTION('axis',(0.,0.,1.));
#77=DIRECTION('refdir',(1.,0.,0.));
#78=DIRECTION('center_axis',(0.,-1.,0.));
#79=DIRECTION('ref_axis',(1.,0.,0.));
#80=DIRECTION('center_axis',(0.,-1.,0.));
#81=DIRECTION('ref_axis',(1.,0.,0.));
#82=DIRECTION('',(0.,1.,0.));
#83=DIRECTION('center_axis',(0.,1.,0.));
#84=DIRECTION('ref_axis',(1.,0.,0.));
#85=DIRECTION('center_axis',(0.,-1.,0.));
#86=DIRECTION('ref_axis',(1.,0.,0.));
#87=DIRECTION('center_axis',(0.,1.,0.));
#88=DIRECTION('ref_axis',(1.,0.,0.));
#89=DIRECTION('',(0.,1.,0.));
#90=DIRECTION('center_axis',(0.,-1.,0.));
#91=DIRECTION('ref_axis',(1.,0.,0.));
#92=DIRECTION('center_axis',(0.,-1.,0.));
#93=DIRECTION('ref_axis',(0.,0.,-1.));
#94=DIRECTION('center_axis',(0.,-1.,0.));
#95=DIRECTION('ref_axis',(0.,0.,-1.));
#96=CARTESIAN_POINT('',(0.,0.,0.));
#97=CARTESIAN_POINT('Origin',(0.,0.,0.));
#98=CARTESIAN_POINT('',(-2.65,-0.9,-3.24531401774049E-16));
#99=CARTESIAN_POINT('Origin',(0.,-0.9,0.));
#100=CARTESIAN_POINT('',(-2.65,0.,-3.24531401774049E-16));
#101=CARTESIAN_POINT('',(-2.65,0.,-3.24531401774049E-16));
#102=CARTESIAN_POINT('Origin',(0.,0.,0.));
#103=CARTESIAN_POINT('Origin',(0.,0.,0.));
#104=CARTESIAN_POINT('',(-5.,-0.9,-6.12323399573677E-16));
#105=CARTESIAN_POINT('Origin',(0.,-0.9,0.));
#106=CARTESIAN_POINT('',(-5.,0.,-6.12323399573677E-16));
#107=CARTESIAN_POINT('',(-5.,0.,-6.12323399573677E-16));
#108=CARTESIAN_POINT('Origin',(0.,0.,0.));
#109=CARTESIAN_POINT('Origin',(0.,-0.9,0.));
#110=CARTESIAN_POINT('Origin',(0.,0.,0.));
#111=UNCERTAINTY_MEASURE_WITH_UNIT(LENGTH_MEASURE(0.01),#115,
'DISTANCE_ACCURACY_VALUE',
'Maximum model space distance between geometric entities at asserted c
onnectivities');
#112=UNCERTAINTY_MEASURE_WITH_UNIT(LENGTH_MEASURE(0.01),#115,
'DISTANCE_ACCURACY_VALUE',
'Maximum model space distance between geometric entities at asserted c
onnectivities');
#113=(
GEOMETRIC_REPRESENTATION_CONTEXT(3)
GLOBAL_UNCERTAINTY_ASSIGNED_CONTEXT((#111))
GLOBAL_UNIT_ASSIGNED_CONTEXT((#115,#116,#117))
REPRESENTATION_CONTEXT('','3D')
);
#114=(
GEOMETRIC_REPRESENTATION_CONTEXT(3)
GLOBAL_UNCERTAINTY_ASSIGNED_CONTEXT((#112))
GLOBAL_UNIT_ASSIGNED_CONTEXT((#115,#116,#117))
REPRESENTATION_CONTEXT('','3D')
);
#115=(
LENGTH_UNIT()
NAMED_UNIT(*)
SI_UNIT(.MILLI.,.METRE.)
);
#116=(
NAMED_UNIT(*)
PLANE_ANGLE_UNIT()
SI_UNIT($,.RADIAN.)
);
#117=(
NAMED_UNIT(*)
SI_UNIT($,.STERADIAN.)
SOLID_ANGLE_UNIT()
);
#118=SHAPE_DEFINITION_REPRESENTATION(#119,#120);
#119=PRODUCT_DEFINITION_SHAPE('',$,#122);
#120=SHAPE_REPRESENTATION('',(#67),#113);
#121=PRODUCT_DEFINITION_CONTEXT('part definition',#126,'design');
#122=PRODUCT_DEFINITION('Product','Product',#123,#121);
#123=PRODUCT_DEFINITION_FORMATION('',$,#128);
#124=PRODUCT_RELATED_PRODUCT_CATEGORY('Product','Product',(#128));
#125=APPLICATION_PROTOCOL_DEFINITION('international standard',
'automotive_design',2009,#126);
#126=APPLICATION_CONTEXT(
'Core Data for Automotive Mechanical Design Process');
#127=PRODUCT_CONTEXT('part definition',#126,'mechanical');
#128=PRODUCT('Product','Product',$,(#127));
#129=PRESENTATION_STYLE_ASSIGNMENT((#130));
#130=SURFACE_STYLE_USAGE(.BOTH.,#131);
#131=SURFACE_SIDE_STYLE('',(#132));
#132=SURFACE_STYLE_FILL_AREA(#133);
#133=FILL_AREA_STYLE('',(#134));
#134=FILL_AREA_STYLE_COLOUR('',#135);
#135=COLOUR_RGB('',1.,1.,1.);
ENDSEC;
END-ISO-10303-21;
