ISO-10303-21;
HEADER;
/* Generated by software containing ST-Developer
 * from STEP Tools, Inc. (www.steptools.com) 
 */

FILE_DESCRIPTION(
/* description */ (''),
/* implementation_level */ '2;1');

FILE_NAME(
/* name */ 
'Z:\\Modular Solution\\A-Profile System\\Parts\\Hardware\\M6\\M6X10SET
-0\\M6X10SET.step',
/* time_stamp */ '2024-10-23T07:43:56-04:00',
/* author */ ('JVann-Robertson'),
/* organization */ (''),
/* preprocessor_version */ 'ST-DEVELOPER v18.1',
/* originating_system */ 'AutoCAD Mechanical',
/* authorisation */ '');

FILE_SCHEMA (('AUTOMOTIVE_DESIGN { 1 0 10303 214 3 1 1 }'));
ENDSEC;

DATA;
#10=MECHANICAL_DESIGN_GEOMETRIC_PRESENTATION_REPRESENTATION('',(#18),#562);
#11=PRESENTATION_LAYER_ASSIGNMENT('0','0',(#19));
#12=ITEM_DEFINED_TRANSFORMATION($,$,#317,#355);
#13=(
REPRESENTATION_RELATIONSHIP($,$,#572,#571)
REPRESENTATION_RELATIONSHIP_WITH_TRANSFORMATION(#12)
SHAPE_REPRESENTATION_RELATIONSHIP()
);
#14=CONTEXT_DEPENDENT_SHAPE_REPRESENTATION(#13,#570);
#15=NEXT_ASSEMBLY_USAGE_OCCURRENCE('5F68B','5F68B','5F68B',#574,#575,
'5F68B');
#16=SHAPE_REPRESENTATION_RELATIONSHIP('SRR','None',#572,#17);
#17=ADVANCED_BREP_SHAPE_REPRESENTATION('',(#19),#561);
#18=STYLED_ITEM('',(#585),#19);
#19=MANIFOLD_SOLID_BREP('5F681',#315);
#20=FACE_BOUND('',#59,.T.);
#21=PLANE('',#327);
#22=PLANE('',#338);
#23=PLANE('',#348);
#24=PLANE('',#349);
#25=PLANE('',#350);
#26=PLANE('',#351);
#27=PLANE('',#352);
#28=PLANE('',#353);
#29=PLANE('',#354);
#30=CYLINDRICAL_SURFACE('',#326,3.);
#31=CYLINDRICAL_SURFACE('',#335,3.);
#32=FACE_OUTER_BOUND('',#54,.T.);
#33=FACE_OUTER_BOUND('',#55,.T.);
#34=FACE_OUTER_BOUND('',#56,.T.);
#35=FACE_OUTER_BOUND('',#57,.T.);
#36=FACE_OUTER_BOUND('',#58,.T.);
#37=FACE_OUTER_BOUND('',#60,.T.);
#38=FACE_OUTER_BOUND('',#61,.T.);
#39=FACE_OUTER_BOUND('',#62,.T.);
#40=FACE_OUTER_BOUND('',#63,.T.);
#41=FACE_OUTER_BOUND('',#64,.T.);
#42=FACE_OUTER_BOUND('',#65,.T.);
#43=FACE_OUTER_BOUND('',#66,.T.);
#44=FACE_OUTER_BOUND('',#67,.T.);
#45=FACE_OUTER_BOUND('',#68,.T.);
#46=FACE_OUTER_BOUND('',#69,.T.);
#47=FACE_OUTER_BOUND('',#70,.T.);
#48=FACE_OUTER_BOUND('',#71,.T.);
#49=FACE_OUTER_BOUND('',#72,.T.);
#50=FACE_OUTER_BOUND('',#73,.T.);
#51=FACE_OUTER_BOUND('',#74,.T.);
#52=FACE_OUTER_BOUND('',#75,.T.);
#53=FACE_OUTER_BOUND('',#76,.T.);
#54=EDGE_LOOP('',(#200,#201,#202));
#55=EDGE_LOOP('',(#203,#204,#205,#206));
#56=EDGE_LOOP('',(#207,#208,#209,#210));
#57=EDGE_LOOP('',(#211,#212,#213,#214));
#58=EDGE_LOOP('',(#215,#216));
#59=EDGE_LOOP('',(#217,#218,#219,#220,#221,#222,#223));
#60=EDGE_LOOP('',(#224,#225,#226,#227));
#61=EDGE_LOOP('',(#228,#229));
#62=EDGE_LOOP('',(#230,#231,#232,#233));
#63=EDGE_LOOP('',(#234,#235,#236,#237));
#64=EDGE_LOOP('',(#238,#239));
#65=EDGE_LOOP('',(#240,#241));
#66=EDGE_LOOP('',(#242,#243));
#67=EDGE_LOOP('',(#244,#245));
#68=EDGE_LOOP('',(#246,#247,#248));
#69=EDGE_LOOP('',(#249,#250));
#70=EDGE_LOOP('',(#251,#252,#253,#254,#255,#256));
#71=EDGE_LOOP('',(#257,#258,#259,#260));
#72=EDGE_LOOP('',(#261,#262,#263,#264));
#73=EDGE_LOOP('',(#265,#266,#267,#268));
#74=EDGE_LOOP('',(#269,#270,#271,#272));
#75=EDGE_LOOP('',(#273,#274,#275,#276,#277));
#76=EDGE_LOOP('',(#278,#279,#280,#281));
#77=CIRCLE('',#319,1.73205080756888);
#78=CIRCLE('',#321,2.25);
#79=CIRCLE('',#322,3.);
#80=CIRCLE('',#324,2.25);
#81=CIRCLE('',#325,3.);
#82=CIRCLE('',#328,2.25);
#83=CIRCLE('',#329,1.73205080756888);
#84=CIRCLE('',#330,1.73205080756888);
#85=CIRCLE('',#331,1.73205080756888);
#86=CIRCLE('',#332,1.73205080756888);
#87=CIRCLE('',#333,1.73205080756888);
#88=CIRCLE('',#334,1.73205080756888);
#89=CIRCLE('',#336,3.);
#90=CIRCLE('',#337,3.);
#91=CIRCLE('',#339,2.25);
#92=LINE('',#464,#111);
#93=LINE('',#471,#112);
#94=LINE('',#474,#113);
#95=LINE('',#480,#114);
#96=LINE('',#483,#115);
#97=LINE('',#485,#116);
#98=LINE('',#486,#117);
#99=LINE('',#534,#118);
#100=LINE('',#536,#119);
#101=LINE('',#538,#120);
#102=LINE('',#540,#121);
#103=LINE('',#542,#122);
#104=LINE('',#543,#123);
#105=LINE('',#545,#124);
#106=LINE('',#546,#125);
#107=LINE('',#548,#126);
#108=LINE('',#550,#127);
#109=LINE('',#552,#128);
#110=LINE('',#554,#129);
#111=VECTOR('',#362,1000.);
#112=VECTOR('',#369,1000.);
#113=VECTOR('',#372,1000.);
#114=VECTOR('',#377,1000.);
#115=VECTOR('',#380,1000.);
#116=VECTOR('',#383,1000.);
#117=VECTOR('',#384,1000.);
#118=VECTOR('',#429,1000.);
#119=VECTOR('',#430,1000.);
#120=VECTOR('',#431,1000.);
#121=VECTOR('',#432,1000.);
#122=VECTOR('',#433,1000.);
#123=VECTOR('',#434,1000.);
#124=VECTOR('',#437,1000.);
#125=VECTOR('',#438,1000.);
#126=VECTOR('',#441,1000.);
#127=VECTOR('',#444,1000.);
#128=VECTOR('',#447,1000.);
#129=VECTOR('',#450,1000.);
#130=(
BOUNDED_CURVE()
B_SPLINE_CURVE(2,(#460,#461,#462),.UNSPECIFIED.,.F.,.F.)
B_SPLINE_CURVE_WITH_KNOTS((3,3),(-0.259461958821884,-0.130611113351457),
 .UNSPECIFIED.)
CURVE()
GEOMETRIC_REPRESENTATION_ITEM()
RATIONAL_B_SPLINE_CURVE((1.41068360252296,1.41068360252296,1.3094010767585))
REPRESENTATION_ITEM('')
);
#131=(
BOUNDED_CURVE()
B_SPLINE_CURVE(2,(#508,#509,#510),.UNSPECIFIED.,.F.,.F.)
B_SPLINE_CURVE_WITH_KNOTS((3,3),(-0.388312804292311,-0.130611113351457),
 .UNSPECIFIED.)
CURVE()
GEOMETRIC_REPRESENTATION_ITEM()
RATIONAL_B_SPLINE_CURVE((1.3094010767585,1.51196612828742,1.3094010767585))
REPRESENTATION_ITEM('')
);
#132=(
BOUNDED_CURVE()
B_SPLINE_CURVE(2,(#512,#513,#514),.UNSPECIFIED.,.F.,.F.)
B_SPLINE_CURVE_WITH_KNOTS((3,3),(-0.388312804292311,-0.130611113351457),
 .UNSPECIFIED.)
CURVE()
GEOMETRIC_REPRESENTATION_ITEM()
RATIONAL_B_SPLINE_CURVE((1.3094010767585,1.51196612828741,1.3094010767585))
REPRESENTATION_ITEM('')
);
#133=(
BOUNDED_CURVE()
B_SPLINE_CURVE(2,(#516,#517,#518),.UNSPECIFIED.,.F.,.F.)
B_SPLINE_CURVE_WITH_KNOTS((3,3),(-0.388312804292311,-0.130611113351457),
 .UNSPECIFIED.)
CURVE()
GEOMETRIC_REPRESENTATION_ITEM()
RATIONAL_B_SPLINE_CURVE((1.3094010767585,1.51196612828741,1.3094010767585))
REPRESENTATION_ITEM('')
);
#134=(
BOUNDED_CURVE()
B_SPLINE_CURVE(2,(#520,#521,#522),.UNSPECIFIED.,.F.,.F.)
B_SPLINE_CURVE_WITH_KNOTS((3,3),(-0.388312804292311,-0.130611113351457),
 .UNSPECIFIED.)
CURVE()
GEOMETRIC_REPRESENTATION_ITEM()
RATIONAL_B_SPLINE_CURVE((1.3094010767585,1.51196612828741,1.3094010767585))
REPRESENTATION_ITEM('')
);
#135=(
BOUNDED_CURVE()
B_SPLINE_CURVE(2,(#524,#525,#526),.UNSPECIFIED.,.F.,.F.)
B_SPLINE_CURVE_WITH_KNOTS((3,3),(-0.388312804292311,-0.259461958821884),
 .UNSPECIFIED.)
CURVE()
GEOMETRIC_REPRESENTATION_ITEM()
RATIONAL_B_SPLINE_CURVE((1.3094010767585,1.41068360252296,1.41068360252296))
REPRESENTATION_ITEM('')
);
#136=(
BOUNDED_CURVE()
B_SPLINE_CURVE(2,(#528,#529,#530),.UNSPECIFIED.,.F.,.F.)
B_SPLINE_CURVE_WITH_KNOTS((3,3),(-0.388312804292311,-0.130611113351457),
 .UNSPECIFIED.)
CURVE()
GEOMETRIC_REPRESENTATION_ITEM()
RATIONAL_B_SPLINE_CURVE((1.3094010767585,1.51196612828742,1.3094010767585))
REPRESENTATION_ITEM('')
);
#137=VERTEX_POINT('',#458);
#138=VERTEX_POINT('',#459);
#139=VERTEX_POINT('',#463);
#140=VERTEX_POINT('',#467);
#141=VERTEX_POINT('',#468);
#142=VERTEX_POINT('',#470);
#143=VERTEX_POINT('',#472);
#144=VERTEX_POINT('',#476);
#145=VERTEX_POINT('',#477);
#146=VERTEX_POINT('',#479);
#147=VERTEX_POINT('',#481);
#148=VERTEX_POINT('',#489);
#149=VERTEX_POINT('',#490);
#150=VERTEX_POINT('',#493);
#151=VERTEX_POINT('',#495);
#152=VERTEX_POINT('',#497);
#153=VERTEX_POINT('',#532);
#154=VERTEX_POINT('',#533);
#155=VERTEX_POINT('',#535);
#156=VERTEX_POINT('',#537);
#157=VERTEX_POINT('',#539);
#158=VERTEX_POINT('',#541);
#159=EDGE_CURVE('',#137,#138,#130,.T.);
#160=EDGE_CURVE('',#137,#139,#92,.T.);
#161=EDGE_CURVE('',#139,#138,#77,.T.);
#162=EDGE_CURVE('',#140,#141,#78,.T.);
#163=EDGE_CURVE('',#140,#142,#93,.T.);
#164=EDGE_CURVE('',#143,#142,#79,.T.);
#165=EDGE_CURVE('',#141,#143,#94,.T.);
#166=EDGE_CURVE('',#144,#145,#80,.T.);
#167=EDGE_CURVE('',#144,#146,#95,.T.);
#168=EDGE_CURVE('',#147,#146,#81,.T.);
#169=EDGE_CURVE('',#145,#147,#96,.T.);
#170=EDGE_CURVE('',#146,#143,#97,.T.);
#171=EDGE_CURVE('',#147,#142,#98,.T.);
#172=EDGE_CURVE('',#141,#140,#82,.T.);
#173=EDGE_CURVE('',#148,#149,#83,.T.);
#174=EDGE_CURVE('',#138,#148,#84,.T.);
#175=EDGE_CURVE('',#150,#139,#85,.T.);
#176=EDGE_CURVE('',#151,#150,#86,.T.);
#177=EDGE_CURVE('',#152,#151,#87,.T.);
#178=EDGE_CURVE('',#149,#152,#88,.T.);
#179=EDGE_CURVE('',#146,#147,#89,.T.);
#180=EDGE_CURVE('',#142,#143,#90,.T.);
#181=EDGE_CURVE('',#145,#144,#91,.T.);
#182=EDGE_CURVE('',#148,#149,#131,.T.);
#183=EDGE_CURVE('',#149,#152,#132,.T.);
#184=EDGE_CURVE('',#152,#151,#133,.T.);
#185=EDGE_CURVE('',#151,#150,#134,.T.);
#186=EDGE_CURVE('',#150,#137,#135,.T.);
#187=EDGE_CURVE('',#138,#148,#136,.T.);
#188=EDGE_CURVE('',#153,#154,#99,.T.);
#189=EDGE_CURVE('',#154,#155,#100,.T.);
#190=EDGE_CURVE('',#155,#156,#101,.T.);
#191=EDGE_CURVE('',#156,#157,#102,.T.);
#192=EDGE_CURVE('',#157,#158,#103,.T.);
#193=EDGE_CURVE('',#158,#153,#104,.T.);
#194=EDGE_CURVE('',#154,#148,#105,.T.);
#195=EDGE_CURVE('',#155,#149,#106,.T.);
#196=EDGE_CURVE('',#156,#152,#107,.T.);
#197=EDGE_CURVE('',#157,#151,#108,.T.);
#198=EDGE_CURVE('',#158,#150,#109,.T.);
#199=EDGE_CURVE('',#153,#138,#110,.T.);
#200=ORIENTED_EDGE('',*,*,#159,.F.);
#201=ORIENTED_EDGE('',*,*,#160,.T.);
#202=ORIENTED_EDGE('',*,*,#161,.T.);
#203=ORIENTED_EDGE('',*,*,#162,.F.);
#204=ORIENTED_EDGE('',*,*,#163,.T.);
#205=ORIENTED_EDGE('',*,*,#164,.F.);
#206=ORIENTED_EDGE('',*,*,#165,.F.);
#207=ORIENTED_EDGE('',*,*,#166,.F.);
#208=ORIENTED_EDGE('',*,*,#167,.T.);
#209=ORIENTED_EDGE('',*,*,#168,.F.);
#210=ORIENTED_EDGE('',*,*,#169,.F.);
#211=ORIENTED_EDGE('',*,*,#168,.T.);
#212=ORIENTED_EDGE('',*,*,#170,.T.);
#213=ORIENTED_EDGE('',*,*,#164,.T.);
#214=ORIENTED_EDGE('',*,*,#171,.F.);
#215=ORIENTED_EDGE('',*,*,#172,.T.);
#216=ORIENTED_EDGE('',*,*,#162,.T.);
#217=ORIENTED_EDGE('',*,*,#173,.F.);
#218=ORIENTED_EDGE('',*,*,#174,.F.);
#219=ORIENTED_EDGE('',*,*,#161,.F.);
#220=ORIENTED_EDGE('',*,*,#175,.F.);
#221=ORIENTED_EDGE('',*,*,#176,.F.);
#222=ORIENTED_EDGE('',*,*,#177,.F.);
#223=ORIENTED_EDGE('',*,*,#178,.F.);
#224=ORIENTED_EDGE('',*,*,#170,.F.);
#225=ORIENTED_EDGE('',*,*,#179,.T.);
#226=ORIENTED_EDGE('',*,*,#171,.T.);
#227=ORIENTED_EDGE('',*,*,#180,.T.);
#228=ORIENTED_EDGE('',*,*,#181,.T.);
#229=ORIENTED_EDGE('',*,*,#166,.T.);
#230=ORIENTED_EDGE('',*,*,#167,.F.);
#231=ORIENTED_EDGE('',*,*,#181,.F.);
#232=ORIENTED_EDGE('',*,*,#169,.T.);
#233=ORIENTED_EDGE('',*,*,#179,.F.);
#234=ORIENTED_EDGE('',*,*,#163,.F.);
#235=ORIENTED_EDGE('',*,*,#172,.F.);
#236=ORIENTED_EDGE('',*,*,#165,.T.);
#237=ORIENTED_EDGE('',*,*,#180,.F.);
#238=ORIENTED_EDGE('',*,*,#173,.T.);
#239=ORIENTED_EDGE('',*,*,#182,.F.);
#240=ORIENTED_EDGE('',*,*,#178,.T.);
#241=ORIENTED_EDGE('',*,*,#183,.F.);
#242=ORIENTED_EDGE('',*,*,#177,.T.);
#243=ORIENTED_EDGE('',*,*,#184,.F.);
#244=ORIENTED_EDGE('',*,*,#176,.T.);
#245=ORIENTED_EDGE('',*,*,#185,.F.);
#246=ORIENTED_EDGE('',*,*,#160,.F.);
#247=ORIENTED_EDGE('',*,*,#186,.F.);
#248=ORIENTED_EDGE('',*,*,#175,.T.);
#249=ORIENTED_EDGE('',*,*,#174,.T.);
#250=ORIENTED_EDGE('',*,*,#187,.F.);
#251=ORIENTED_EDGE('',*,*,#188,.T.);
#252=ORIENTED_EDGE('',*,*,#189,.T.);
#253=ORIENTED_EDGE('',*,*,#190,.T.);
#254=ORIENTED_EDGE('',*,*,#191,.T.);
#255=ORIENTED_EDGE('',*,*,#192,.T.);
#256=ORIENTED_EDGE('',*,*,#193,.T.);
#257=ORIENTED_EDGE('',*,*,#194,.T.);
#258=ORIENTED_EDGE('',*,*,#182,.T.);
#259=ORIENTED_EDGE('',*,*,#195,.F.);
#260=ORIENTED_EDGE('',*,*,#189,.F.);
#261=ORIENTED_EDGE('',*,*,#195,.T.);
#262=ORIENTED_EDGE('',*,*,#183,.T.);
#263=ORIENTED_EDGE('',*,*,#196,.F.);
#264=ORIENTED_EDGE('',*,*,#190,.F.);
#265=ORIENTED_EDGE('',*,*,#196,.T.);
#266=ORIENTED_EDGE('',*,*,#184,.T.);
#267=ORIENTED_EDGE('',*,*,#197,.F.);
#268=ORIENTED_EDGE('',*,*,#191,.F.);
#269=ORIENTED_EDGE('',*,*,#197,.T.);
#270=ORIENTED_EDGE('',*,*,#185,.T.);
#271=ORIENTED_EDGE('',*,*,#198,.F.);
#272=ORIENTED_EDGE('',*,*,#192,.F.);
#273=ORIENTED_EDGE('',*,*,#198,.T.);
#274=ORIENTED_EDGE('',*,*,#186,.T.);
#275=ORIENTED_EDGE('',*,*,#159,.T.);
#276=ORIENTED_EDGE('',*,*,#199,.F.);
#277=ORIENTED_EDGE('',*,*,#193,.F.);
#278=ORIENTED_EDGE('',*,*,#199,.T.);
#279=ORIENTED_EDGE('',*,*,#187,.T.);
#280=ORIENTED_EDGE('',*,*,#194,.F.);
#281=ORIENTED_EDGE('',*,*,#188,.F.);
#282=CONICAL_SURFACE('',#318,1.73205080756888,0.78539816339745);
#283=CONICAL_SURFACE('',#320,2.25,0.785398163397446);
#284=CONICAL_SURFACE('',#323,3.,0.78539816339745);
#285=CONICAL_SURFACE('',#340,3.,0.78539816339745);
#286=CONICAL_SURFACE('',#341,2.25,0.785398163397446);
#287=CONICAL_SURFACE('',#342,1.73205080756888,0.78539816339745);
#288=CONICAL_SURFACE('',#343,1.73205080756888,0.78539816339745);
#289=CONICAL_SURFACE('',#344,1.73205080756888,0.78539816339745);
#290=CONICAL_SURFACE('',#345,1.73205080756888,0.78539816339745);
#291=CONICAL_SURFACE('',#346,1.73205080756888,0.78539816339745);
#292=CONICAL_SURFACE('',#347,1.73205080756888,0.78539816339745);
#293=ADVANCED_FACE('',(#32),#282,.F.);
#294=ADVANCED_FACE('',(#33),#283,.T.);
#295=ADVANCED_FACE('',(#34),#284,.T.);
#296=ADVANCED_FACE('',(#35),#30,.T.);
#297=ADVANCED_FACE('',(#36,#20),#21,.F.);
#298=ADVANCED_FACE('',(#37),#31,.T.);
#299=ADVANCED_FACE('',(#38),#22,.F.);
#300=ADVANCED_FACE('',(#39),#285,.T.);
#301=ADVANCED_FACE('',(#40),#286,.T.);
#302=ADVANCED_FACE('',(#41),#287,.F.);
#303=ADVANCED_FACE('',(#42),#288,.F.);
#304=ADVANCED_FACE('',(#43),#289,.F.);
#305=ADVANCED_FACE('',(#44),#290,.F.);
#306=ADVANCED_FACE('',(#45),#291,.F.);
#307=ADVANCED_FACE('',(#46),#292,.F.);
#308=ADVANCED_FACE('',(#47),#23,.T.);
#309=ADVANCED_FACE('',(#48),#24,.F.);
#310=ADVANCED_FACE('',(#49),#25,.F.);
#311=ADVANCED_FACE('',(#50),#26,.F.);
#312=ADVANCED_FACE('',(#51),#27,.F.);
#313=ADVANCED_FACE('',(#52),#28,.F.);
#314=ADVANCED_FACE('',(#53),#29,.F.);
#315=CLOSED_SHELL('',(#293,#294,#295,#296,#297,#298,#299,#300,#301,#302,
#303,#304,#305,#306,#307,#308,#309,#310,#311,#312,#313,#314));
#316=AXIS2_PLACEMENT_3D('placement',#455,#356,#357);
#317=AXIS2_PLACEMENT_3D('placement',#456,#358,#359);
#318=AXIS2_PLACEMENT_3D('',#457,#360,#361);
#319=AXIS2_PLACEMENT_3D('',#465,#363,#364);
#320=AXIS2_PLACEMENT_3D('',#466,#365,#366);
#321=AXIS2_PLACEMENT_3D('',#469,#367,#368);
#322=AXIS2_PLACEMENT_3D('',#473,#370,#371);
#323=AXIS2_PLACEMENT_3D('',#475,#373,#374);
#324=AXIS2_PLACEMENT_3D('',#478,#375,#376);
#325=AXIS2_PLACEMENT_3D('',#482,#378,#379);
#326=AXIS2_PLACEMENT_3D('',#484,#381,#382);
#327=AXIS2_PLACEMENT_3D('',#487,#385,#386);
#328=AXIS2_PLACEMENT_3D('',#488,#387,#388);
#329=AXIS2_PLACEMENT_3D('',#491,#389,#390);
#330=AXIS2_PLACEMENT_3D('',#492,#391,#392);
#331=AXIS2_PLACEMENT_3D('',#494,#393,#394);
#332=AXIS2_PLACEMENT_3D('',#496,#395,#396);
#333=AXIS2_PLACEMENT_3D('',#498,#397,#398);
#334=AXIS2_PLACEMENT_3D('',#499,#399,#400);
#335=AXIS2_PLACEMENT_3D('',#500,#401,#402);
#336=AXIS2_PLACEMENT_3D('',#501,#403,#404);
#337=AXIS2_PLACEMENT_3D('',#502,#405,#406);
#338=AXIS2_PLACEMENT_3D('',#503,#407,#408);
#339=AXIS2_PLACEMENT_3D('',#504,#409,#410);
#340=AXIS2_PLACEMENT_3D('',#505,#411,#412);
#341=AXIS2_PLACEMENT_3D('',#506,#413,#414);
#342=AXIS2_PLACEMENT_3D('',#507,#415,#416);
#343=AXIS2_PLACEMENT_3D('',#511,#417,#418);
#344=AXIS2_PLACEMENT_3D('',#515,#419,#420);
#345=AXIS2_PLACEMENT_3D('',#519,#421,#422);
#346=AXIS2_PLACEMENT_3D('',#523,#423,#424);
#347=AXIS2_PLACEMENT_3D('',#527,#425,#426);
#348=AXIS2_PLACEMENT_3D('',#531,#427,#428);
#349=AXIS2_PLACEMENT_3D('',#544,#435,#436);
#350=AXIS2_PLACEMENT_3D('',#547,#439,#440);
#351=AXIS2_PLACEMENT_3D('',#549,#442,#443);
#352=AXIS2_PLACEMENT_3D('',#551,#445,#446);
#353=AXIS2_PLACEMENT_3D('',#553,#448,#449);
#354=AXIS2_PLACEMENT_3D('',#555,#451,#452);
#355=AXIS2_PLACEMENT_3D('',#556,#453,#454);
#356=DIRECTION('axis',(0.,0.,1.));
#357=DIRECTION('refdir',(1.,0.,0.));
#358=DIRECTION('axis',(0.,0.,1.));
#359=DIRECTION('refdir',(1.,0.,0.));
#360=DIRECTION('center_axis',(0.,0.,1.));
#361=DIRECTION('ref_axis',(1.,0.,0.));
#362=DIRECTION('',(0.707106781186549,0.,0.707106781186546));
#363=DIRECTION('center_axis',(0.,0.,1.));
#364=DIRECTION('ref_axis',(1.,0.,0.));
#365=DIRECTION('center_axis',(0.,1.86224264518417E-17,-1.));
#366=DIRECTION('ref_axis',(0.,1.,1.86224264518417E-17));
#367=DIRECTION('center_axis',(0.,-1.86224264518417E-17,1.));
#368=DIRECTION('ref_axis',(0.,1.,1.86224264518417E-17));
#369=DIRECTION('',(8.65956056235491E-17,-0.707106781186546,-0.707106781186549));
#370=DIRECTION('center_axis',(0.,1.86224264518417E-17,-1.));
#371=DIRECTION('ref_axis',(0.,1.,1.86224264518417E-17));
#372=DIRECTION('',(0.,0.707106781186546,-0.707106781186549));
#373=DIRECTION('center_axis',(0.,-1.86224264518417E-17,1.));
#374=DIRECTION('ref_axis',(0.,-1.,-1.86224264518417E-17));
#375=DIRECTION('center_axis',(0.,1.86224264518417E-17,-1.));
#376=DIRECTION('ref_axis',(0.,-1.,-1.86224264518417E-17));
#377=DIRECTION('',(8.65956056235495E-17,0.707106781186549,0.707106781186547));
#378=DIRECTION('center_axis',(0.,-1.86224264518417E-17,1.));
#379=DIRECTION('ref_axis',(0.,-1.,-1.86224264518417E-17));
#380=DIRECTION('',(0.,-0.707106781186549,0.707106781186547));
#381=DIRECTION('center_axis',(0.,-1.86224264518417E-17,1.));
#382=DIRECTION('ref_axis',(0.,-1.,-1.86224264518417E-17));
#383=DIRECTION('',(0.,-1.86224264518417E-17,1.));
#384=DIRECTION('',(0.,-1.86224264518417E-17,1.));
#385=DIRECTION('center_axis',(0.,1.86224264518417E-17,-1.));
#386=DIRECTION('ref_axis',(0.,1.,1.86224264518417E-17));
#387=DIRECTION('center_axis',(0.,-1.86224264518417E-17,1.));
#388=DIRECTION('ref_axis',(0.,1.,1.86224264518417E-17));
#389=DIRECTION('center_axis',(0.,0.,1.));
#390=DIRECTION('ref_axis',(1.,0.,0.));
#391=DIRECTION('center_axis',(0.,0.,1.));
#392=DIRECTION('ref_axis',(1.,0.,0.));
#393=DIRECTION('center_axis',(0.,0.,1.));
#394=DIRECTION('ref_axis',(1.,0.,0.));
#395=DIRECTION('center_axis',(0.,0.,1.));
#396=DIRECTION('ref_axis',(1.,0.,0.));
#397=DIRECTION('center_axis',(0.,0.,1.));
#398=DIRECTION('ref_axis',(1.,0.,0.));
#399=DIRECTION('center_axis',(0.,0.,1.));
#400=DIRECTION('ref_axis',(1.,0.,0.));
#401=DIRECTION('center_axis',(0.,-1.86224264518417E-17,1.));
#402=DIRECTION('ref_axis',(0.,-1.,-1.86224264518417E-17));
#403=DIRECTION('center_axis',(0.,-1.86224264518417E-17,1.));
#404=DIRECTION('ref_axis',(0.,-1.,-1.86224264518417E-17));
#405=DIRECTION('center_axis',(0.,1.86224264518417E-17,-1.));
#406=DIRECTION('ref_axis',(0.,1.,1.86224264518417E-17));
#407=DIRECTION('center_axis',(0.,-1.86224264518417E-17,1.));
#408=DIRECTION('ref_axis',(0.,-1.,-1.86224264518417E-17));
#409=DIRECTION('center_axis',(0.,1.86224264518417E-17,-1.));
#410=DIRECTION('ref_axis',(0.,-1.,-1.86224264518417E-17));
#411=DIRECTION('center_axis',(0.,-1.86224264518417E-17,1.));
#412=DIRECTION('ref_axis',(0.,-1.,-1.86224264518417E-17));
#413=DIRECTION('center_axis',(0.,1.86224264518417E-17,-1.));
#414=DIRECTION('ref_axis',(0.,1.,1.86224264518417E-17));
#415=DIRECTION('center_axis',(0.,0.,1.));
#416=DIRECTION('ref_axis',(1.,0.,0.));
#417=DIRECTION('center_axis',(0.,0.,1.));
#418=DIRECTION('ref_axis',(-1.,1.22464679914735E-16,0.));
#419=DIRECTION('center_axis',(0.,0.,1.));
#420=DIRECTION('ref_axis',(1.,0.,0.));
#421=DIRECTION('center_axis',(0.,0.,1.));
#422=DIRECTION('ref_axis',(1.,0.,0.));
#423=DIRECTION('center_axis',(0.,0.,1.));
#424=DIRECTION('ref_axis',(1.,0.,0.));
#425=DIRECTION('center_axis',(0.,0.,1.));
#426=DIRECTION('ref_axis',(1.,0.,0.));
#427=DIRECTION('center_axis',(0.,0.,1.));
#428=DIRECTION('ref_axis',(1.,0.,0.));
#429=DIRECTION('',(-0.866025403784439,0.5,0.));
#430=DIRECTION('',(-0.866025403784438,-0.5,0.));
#431=DIRECTION('',(-3.7557864968429E-16,-1.,0.));
#432=DIRECTION('',(0.866025403784439,-0.5,0.));
#433=DIRECTION('',(0.866025403784439,0.5,0.));
#434=DIRECTION('',(2.50385766456193E-16,1.,0.));
#435=DIRECTION('center_axis',(-0.5,0.866025403784439,0.));
#436=DIRECTION('ref_axis',(-0.866025403784438,-0.5,0.));
#437=DIRECTION('',(0.,0.,1.));
#438=DIRECTION('',(0.,0.,1.));
#439=DIRECTION('center_axis',(-1.,3.7557864968429E-16,0.));
#440=DIRECTION('ref_axis',(-3.7557864968429E-16,-1.,0.));
#441=DIRECTION('',(0.,0.,1.));
#442=DIRECTION('center_axis',(-0.5,-0.866025403784439,0.));
#443=DIRECTION('ref_axis',(0.866025403784439,-0.5,0.));
#444=DIRECTION('',(0.,0.,1.));
#445=DIRECTION('center_axis',(0.5,-0.866025403784439,0.));
#446=DIRECTION('ref_axis',(0.866025403784439,0.5,0.));
#447=DIRECTION('',(0.,0.,1.));
#448=DIRECTION('center_axis',(1.,-2.50385766456193E-16,0.));
#449=DIRECTION('ref_axis',(2.50385766456193E-16,1.,0.));
#450=DIRECTION('',(0.,0.,1.));
#451=DIRECTION('center_axis',(0.5,0.866025403784439,0.));
#452=DIRECTION('ref_axis',(-0.866025403784438,0.5,0.));
#453=DIRECTION('',(0.,0.,1.));
#454=DIRECTION('',(1.,0.,0.));
#455=CARTESIAN_POINT('',(0.,0.,0.));
#456=CARTESIAN_POINT('',(0.,0.,0.));
#457=CARTESIAN_POINT('Origin',(0.,-9.31121322592084E-17,5.));
#458=CARTESIAN_POINT('',(1.5,-9.31121324604344E-17,4.76794919243113));
#459=CARTESIAN_POINT('',(1.5,0.866025403784439,5.));
#460=CARTESIAN_POINT('Ctrl Pts',(1.5,1.33791811181987E-15,4.76794919243112));
#461=CARTESIAN_POINT('Ctrl Pts',(1.5,0.401923788646685,4.76794919243113));
#462=CARTESIAN_POINT('Ctrl Pts',(1.5,0.866025403784439,5.));
#463=CARTESIAN_POINT('',(1.73205080756888,-9.31121322592084E-17,5.));
#464=CARTESIAN_POINT('',(1.73205080756888,-9.31121322592084E-17,5.));
#465=CARTESIAN_POINT('Origin',(0.,-9.31121322592084E-17,5.));
#466=CARTESIAN_POINT('Origin',(0.,-1.86224264518417E-16,5.));
#467=CARTESIAN_POINT('',(3.2146978477618E-16,-2.25,5.));
#468=CARTESIAN_POINT('',(0.,2.25,5.));
#469=CARTESIAN_POINT('Origin',(0.,-1.86224264518417E-16,5.));
#470=CARTESIAN_POINT('',(0.,-3.,4.25));
#471=CARTESIAN_POINT('',(2.75545529808155E-16,-2.25,5.));
#472=CARTESIAN_POINT('',(3.67394039744206E-16,3.,4.25));
#473=CARTESIAN_POINT('Origin',(0.,-1.72257444679536E-16,4.25));
#474=CARTESIAN_POINT('',(0.,2.25,5.));
#475=CARTESIAN_POINT('Origin',(0.,-1.39668198388813E-17,-4.25));
#476=CARTESIAN_POINT('',(3.2146978477618E-16,2.25,-5.));
#477=CARTESIAN_POINT('',(0.,-2.25,-5.));
#478=CARTESIAN_POINT('Origin',(0.,-3.78955376375212E-33,-5.));
#479=CARTESIAN_POINT('',(3.67394039744206E-16,3.,-4.25));
#480=CARTESIAN_POINT('',(3.67394039744206E-16,3.,-4.25));
#481=CARTESIAN_POINT('',(0.,-3.,-4.25));
#482=CARTESIAN_POINT('Origin',(0.,-1.39668198388813E-17,-4.25));
#483=CARTESIAN_POINT('',(0.,-3.,-4.25));
#484=CARTESIAN_POINT('Origin',(0.,-1.86224264518417E-16,5.));
#485=CARTESIAN_POINT('',(3.67394039744206E-16,3.,5.));
#486=CARTESIAN_POINT('',(0.,-3.,5.));
#487=CARTESIAN_POINT('Origin',(0.,-1.86224264518417E-16,5.));
#488=CARTESIAN_POINT('Origin',(0.,-1.86224264518417E-16,5.));
#489=CARTESIAN_POINT('',(1.0842021724855E-16,1.73205080756888,5.));
#490=CARTESIAN_POINT('',(-1.5,0.866025403784438,5.));
#491=CARTESIAN_POINT('Origin',(0.,-9.31121322592084E-17,5.));
#492=CARTESIAN_POINT('Origin',(0.,-9.31121322592084E-17,5.));
#493=CARTESIAN_POINT('',(1.5,-0.866025403784438,5.));
#494=CARTESIAN_POINT('Origin',(0.,-9.31121322592084E-17,5.));
#495=CARTESIAN_POINT('',(5.42101086242752E-16,-1.73205080756888,5.));
#496=CARTESIAN_POINT('Origin',(0.,-9.31121322592084E-17,5.));
#497=CARTESIAN_POINT('',(-1.5,-0.866025403784438,5.));
#498=CARTESIAN_POINT('Origin',(0.,-9.31121322592084E-17,5.));
#499=CARTESIAN_POINT('Origin',(0.,-9.31121322592084E-17,5.));
#500=CARTESIAN_POINT('Origin',(0.,-1.86224264518417E-16,5.));
#501=CARTESIAN_POINT('Origin',(0.,-1.39668198388813E-17,-4.25));
#502=CARTESIAN_POINT('Origin',(0.,-1.72257444679536E-16,4.25));
#503=CARTESIAN_POINT('Origin',(0.,5.20192150431379E-34,-5.));
#504=CARTESIAN_POINT('Origin',(0.,-3.78955376375212E-33,-5.));
#505=CARTESIAN_POINT('Origin',(0.,-1.39668198388813E-17,-4.25));
#506=CARTESIAN_POINT('Origin',(0.,-1.86224264518417E-16,5.));
#507=CARTESIAN_POINT('Origin',(0.,-9.31121322592084E-17,5.));
#508=CARTESIAN_POINT('Ctrl Pts',(1.78056089390465E-15,1.73205080756888,
5.));
#509=CARTESIAN_POINT('Ctrl Pts',(-0.749999999999999,1.29903810567666,4.56698729810778));
#510=CARTESIAN_POINT('Ctrl Pts',(-1.5,0.866025403784438,5.));
#511=CARTESIAN_POINT('Origin',(0.,-9.31121322592084E-17,5.));
#512=CARTESIAN_POINT('Ctrl Pts',(-1.5,0.866025403784438,5.));
#513=CARTESIAN_POINT('Ctrl Pts',(-1.5,2.22044604925031E-16,4.56698729810778));
#514=CARTESIAN_POINT('Ctrl Pts',(-1.5,-0.866025403784438,5.));
#515=CARTESIAN_POINT('Origin',(0.,-9.31121322592084E-17,5.));
#516=CARTESIAN_POINT('Ctrl Pts',(-1.5,-0.866025403784438,5.));
#517=CARTESIAN_POINT('Ctrl Pts',(-0.749999999999999,-1.29903810567666,4.56698729810778));
#518=CARTESIAN_POINT('Ctrl Pts',(9.32674753950054E-16,-1.73205080756888,
5.));
#519=CARTESIAN_POINT('Origin',(0.,-9.31121322592084E-17,5.));
#520=CARTESIAN_POINT('Ctrl Pts',(-5.08731683972756E-16,-1.73205080756888,
5.));
#521=CARTESIAN_POINT('Ctrl Pts',(0.75,-1.29903810567666,4.56698729810778));
#522=CARTESIAN_POINT('Ctrl Pts',(1.5,-0.866025403784439,5.));
#523=CARTESIAN_POINT('Origin',(0.,-9.31121322592084E-17,5.));
#524=CARTESIAN_POINT('Ctrl Pts',(1.5,-0.866025403784439,5.));
#525=CARTESIAN_POINT('Ctrl Pts',(1.5,-0.401923788646683,4.76794919243112));
#526=CARTESIAN_POINT('Ctrl Pts',(1.5,1.33791811181987E-15,4.76794919243112));
#527=CARTESIAN_POINT('Origin',(0.,-9.31121322592084E-17,5.));
#528=CARTESIAN_POINT('Ctrl Pts',(1.5,0.866025403784439,5.));
#529=CARTESIAN_POINT('Ctrl Pts',(0.749999999999999,1.29903810567666,4.56698729810778));
#530=CARTESIAN_POINT('Ctrl Pts',(1.27182920993189E-16,1.73205080756888,
5.));
#531=CARTESIAN_POINT('Origin',(0.,0.,0.620000000000001));
#532=CARTESIAN_POINT('',(1.5,0.866025403784438,0.620000000000001));
#533=CARTESIAN_POINT('',(0.,1.73205080756888,0.620000000000001));
#534=CARTESIAN_POINT('',(1.5,0.866025403784438,0.620000000000001));
#535=CARTESIAN_POINT('',(-1.5,0.866025403784438,0.620000000000001));
#536=CARTESIAN_POINT('',(0.,1.73205080756888,0.620000000000001));
#537=CARTESIAN_POINT('',(-1.5,-0.866025403784438,0.620000000000001));
#538=CARTESIAN_POINT('',(-1.5,0.866025403784438,0.620000000000001));
#539=CARTESIAN_POINT('',(-1.12665264646108E-16,-1.73205080756888,0.620000000000001));
#540=CARTESIAN_POINT('',(-1.5,-0.866025403784438,0.620000000000001));
#541=CARTESIAN_POINT('',(1.5,-0.866025403784439,0.620000000000001));
#542=CARTESIAN_POINT('',(-1.12665264646108E-16,-1.73205080756888,0.620000000000001));
#543=CARTESIAN_POINT('',(1.5,-0.866025403784439,0.620000000000001));
#544=CARTESIAN_POINT('Origin',(0.,1.73205080756888,0.620000000000001));
#545=CARTESIAN_POINT('',(0.,1.73205080756888,0.620000000000001));
#546=CARTESIAN_POINT('',(-1.5,0.866025403784438,0.620000000000001));
#547=CARTESIAN_POINT('Origin',(-1.5,0.866025403784438,0.620000000000001));
#548=CARTESIAN_POINT('',(-1.5,-0.866025403784438,0.620000000000001));
#549=CARTESIAN_POINT('Origin',(-1.5,-0.866025403784438,0.620000000000001));
#550=CARTESIAN_POINT('',(-1.12665264646108E-16,-1.73205080756888,0.620000000000001));
#551=CARTESIAN_POINT('Origin',(-1.12665264646108E-16,-1.73205080756888,
0.620000000000001));
#552=CARTESIAN_POINT('',(1.5,-0.866025403784439,0.620000000000001));
#553=CARTESIAN_POINT('Origin',(1.5,-0.866025403784439,0.620000000000001));
#554=CARTESIAN_POINT('',(1.5,0.866025403784438,0.620000000000001));
#555=CARTESIAN_POINT('Origin',(1.5,0.866025403784438,0.620000000000001));
#556=CARTESIAN_POINT('',(0.,0.,0.));
#557=UNCERTAINTY_MEASURE_WITH_UNIT(LENGTH_MEASURE(0.01),#563,
'DISTANCE_ACCURACY_VALUE',
'Maximum model space distance between geometric entities at asserted c
onnectivities');
#558=UNCERTAINTY_MEASURE_WITH_UNIT(LENGTH_MEASURE(0.01),#563,
'DISTANCE_ACCURACY_VALUE',
'Maximum model space distance between geometric entities at asserted c
onnectivities');
#559=UNCERTAINTY_MEASURE_WITH_UNIT(LENGTH_MEASURE(0.01),#563,
'DISTANCE_ACCURACY_VALUE',
'Maximum model space distance between geometric entities at asserted c
onnectivities');
#560=(
GEOMETRIC_REPRESENTATION_CONTEXT(3)
GLOBAL_UNCERTAINTY_ASSIGNED_CONTEXT((#557))
GLOBAL_UNIT_ASSIGNED_CONTEXT((#563,#564,#565))
REPRESENTATION_CONTEXT('','3D')
);
#561=(
GEOMETRIC_REPRESENTATION_CONTEXT(3)
GLOBAL_UNCERTAINTY_ASSIGNED_CONTEXT((#558))
GLOBAL_UNIT_ASSIGNED_CONTEXT((#563,#564,#565))
REPRESENTATION_CONTEXT('','3D')
);
#562=(
GEOMETRIC_REPRESENTATION_CONTEXT(3)
GLOBAL_UNCERTAINTY_ASSIGNED_CONTEXT((#559))
GLOBAL_UNIT_ASSIGNED_CONTEXT((#563,#564,#565))
REPRESENTATION_CONTEXT('','3D')
);
#563=(
LENGTH_UNIT()
NAMED_UNIT(*)
SI_UNIT(.MILLI.,.METRE.)
);
#564=(
NAMED_UNIT(*)
PLANE_ANGLE_UNIT()
SI_UNIT($,.RADIAN.)
);
#565=(
NAMED_UNIT(*)
SI_UNIT($,.STERADIAN.)
SOLID_ANGLE_UNIT()
);
#566=SHAPE_DEFINITION_REPRESENTATION(#568,#571);
#567=SHAPE_DEFINITION_REPRESENTATION(#569,#572);
#568=PRODUCT_DEFINITION_SHAPE('',$,#574);
#569=PRODUCT_DEFINITION_SHAPE('',$,#575);
#570=PRODUCT_DEFINITION_SHAPE($,$,#15);
#571=SHAPE_REPRESENTATION('',(#316,#355),#560);
#572=SHAPE_REPRESENTATION('',(#317),#561);
#573=PRODUCT_DEFINITION_CONTEXT('part definition',#581,'design');
#574=PRODUCT_DEFINITION('Product','Product',#576,#573);
#575=PRODUCT_DEFINITION(
'92605A128_NO THREADS_Stainless Steel Flat-Tip Set Screw',
'92605A128_NO THREADS_Stainless Steel Flat-Tip Set Screw',#577,#573);
#576=PRODUCT_DEFINITION_FORMATION('',$,#583);
#577=PRODUCT_DEFINITION_FORMATION('',$,#584);
#578=PRODUCT_RELATED_PRODUCT_CATEGORY('Product','Product',(#583));
#579=PRODUCT_RELATED_PRODUCT_CATEGORY(
'92605A128_NO THREADS_Stainless Steel Flat-Tip Set Screw',
'92605A128_NO THREADS_Stainless Steel Flat-Tip Set Screw',(#584));
#580=APPLICATION_PROTOCOL_DEFINITION('international standard',
'automotive_design',2009,#581);
#581=APPLICATION_CONTEXT(
'Core Data for Automotive Mechanical Design Process');
#582=PRODUCT_CONTEXT('part definition',#581,'mechanical');
#583=PRODUCT('Product','Product',$,(#582));
#584=PRODUCT('92605A128_NO THREADS_Stainless Steel Flat-Tip Set Screw',
'92605A128_NO THREADS_Stainless Steel Flat-Tip Set Screw',$,(#582));
#585=PRESENTATION_STYLE_ASSIGNMENT((#586));
#586=SURFACE_STYLE_USAGE(.BOTH.,#587);
#587=SURFACE_SIDE_STYLE('',(#588));
#588=SURFACE_STYLE_FILL_AREA(#589);
#589=FILL_AREA_STYLE('',(#590));
#590=FILL_AREA_STYLE_COLOUR('',#591);
#591=COLOUR_RGB('',1.,1.,1.);
ENDSEC;
END-ISO-10303-21;
