ISO-10303-21;
HEADER;
/* Generated by software containing ST-Developer
 * from STEP Tools, Inc. (www.steptools.com) 
 */

FILE_DESCRIPTION(
/* description */ (''),
/* implementation_level */ '2;1');

FILE_NAME(
/* name */ 
'Z:\\Modular Solution\\A-Profile System\\Parts\\Hardware\\M6\\M6X16HHC
S-0\\M6 x 16 HHCS.step',
/* time_stamp */ '2024-10-22T15:03:51-04:00',
/* author */ ('JVann-Robertson'),
/* organization */ (''),
/* preprocessor_version */ 'ST-DEVELOPER v18.1',
/* originating_system */ 'AutoCAD Mechanical',
/* authorisation */ '');

FILE_SCHEMA (('AUTOMOTIVE_DESIGN { 1 0 10303 214 3 1 1 }'));
ENDSEC;

DATA;
#10=MECHANICAL_DESIGN_GEOMETRIC_PRESENTATION_REPRESENTATION('',(#14),#468);
#11=PRESENTATION_LAYER_ASSIGNMENT('0','0',(#15));
#12=SHAPE_REPRESENTATION_RELATIONSHIP('SRR','None',#474,#13);
#13=ADVANCED_BREP_SHAPE_REPRESENTATION('',(#15),#467);
#14=STYLED_ITEM('',(#483),#15);
#15=MANIFOLD_SOLID_BREP('168',#266);
#16=(
BOUNDED_CURVE()
B_SPLINE_CURVE(2,(#407,#408,#409),.UNSPECIFIED.,.F.,.F.)
B_SPLINE_CURVE_WITH_KNOTS((3,3),(0.828740437871358,1.36602540378444),
 .UNSPECIFIED.)
CURVE()
GEOMETRIC_REPRESENTATION_ITEM()
RATIONAL_B_SPLINE_CURVE((1.73205080756823,1.86602540378444,1.86602540378444))
REPRESENTATION_ITEM('')
);
#17=(
BOUNDED_CURVE()
B_SPLINE_CURVE(2,(#411,#412,#413),.UNSPECIFIED.,.F.,.F.)
B_SPLINE_CURVE_WITH_KNOTS((3,3),(1.36602540378444,1.90331036969753),
 .UNSPECIFIED.)
CURVE()
GEOMETRIC_REPRESENTATION_ITEM()
RATIONAL_B_SPLINE_CURVE((1.86602540378444,1.86602540378444,1.73205080756823))
REPRESENTATION_ITEM('')
);
#18=(
BOUNDED_CURVE()
B_SPLINE_CURVE(2,(#417,#418,#419),.UNSPECIFIED.,.F.,.F.)
B_SPLINE_CURVE_WITH_KNOTS((3,3),(0.828740437871357,1.36602540378444),
 .UNSPECIFIED.)
CURVE()
GEOMETRIC_REPRESENTATION_ITEM()
RATIONAL_B_SPLINE_CURVE((1.73205080756823,1.86602540378444,1.86602540378444))
REPRESENTATION_ITEM('')
);
#19=(
BOUNDED_CURVE()
B_SPLINE_CURVE(2,(#421,#422,#423),.UNSPECIFIED.,.F.,.F.)
B_SPLINE_CURVE_WITH_KNOTS((3,3),(1.36602540378444,1.90331036969753),
 .UNSPECIFIED.)
CURVE()
GEOMETRIC_REPRESENTATION_ITEM()
RATIONAL_B_SPLINE_CURVE((1.86602540378444,1.86602540378444,1.73205080756823))
REPRESENTATION_ITEM('')
);
#20=(
BOUNDED_CURVE()
B_SPLINE_CURVE(2,(#426,#427,#428),.UNSPECIFIED.,.F.,.F.)
B_SPLINE_CURVE_WITH_KNOTS((3,3),(0.828740437871357,1.36602540378444),
 .UNSPECIFIED.)
CURVE()
GEOMETRIC_REPRESENTATION_ITEM()
RATIONAL_B_SPLINE_CURVE((1.73205080756823,1.86602540378444,1.86602540378444))
REPRESENTATION_ITEM('')
);
#21=(
BOUNDED_CURVE()
B_SPLINE_CURVE(2,(#430,#431,#432),.UNSPECIFIED.,.F.,.F.)
B_SPLINE_CURVE_WITH_KNOTS((3,3),(1.36602540378444,1.9033103696975),
 .UNSPECIFIED.)
CURVE()
GEOMETRIC_REPRESENTATION_ITEM()
RATIONAL_B_SPLINE_CURVE((1.86602540378444,1.86602540378444,1.73205080756824))
REPRESENTATION_ITEM('')
);
#22=(
BOUNDED_CURVE()
B_SPLINE_CURVE(2,(#435,#436,#437),.UNSPECIFIED.,.F.,.F.)
B_SPLINE_CURVE_WITH_KNOTS((3,3),(0.82874043787133,1.36602540378444),
 .UNSPECIFIED.)
CURVE()
GEOMETRIC_REPRESENTATION_ITEM()
RATIONAL_B_SPLINE_CURVE((1.73205080756821,1.86602540378444,1.86602540378444))
REPRESENTATION_ITEM('')
);
#23=(
BOUNDED_CURVE()
B_SPLINE_CURVE(2,(#439,#440,#441),.UNSPECIFIED.,.F.,.F.)
B_SPLINE_CURVE_WITH_KNOTS((3,3),(1.36602540378444,1.90331036969753),
 .UNSPECIFIED.)
CURVE()
GEOMETRIC_REPRESENTATION_ITEM()
RATIONAL_B_SPLINE_CURVE((1.86602540378444,1.86602540378444,1.73205080756822))
REPRESENTATION_ITEM('')
);
#24=(
BOUNDED_CURVE()
B_SPLINE_CURVE(2,(#444,#445,#446),.UNSPECIFIED.,.F.,.F.)
B_SPLINE_CURVE_WITH_KNOTS((3,3),(0.828740437871357,1.36602540378444),
 .UNSPECIFIED.)
CURVE()
GEOMETRIC_REPRESENTATION_ITEM()
RATIONAL_B_SPLINE_CURVE((1.73205080756822,1.86602540378444,1.86602540378444))
REPRESENTATION_ITEM('')
);
#25=(
BOUNDED_CURVE()
B_SPLINE_CURVE(2,(#448,#449,#450),.UNSPECIFIED.,.F.,.F.)
B_SPLINE_CURVE_WITH_KNOTS((3,3),(1.36602540378444,1.90331036969753),
 .UNSPECIFIED.)
CURVE()
GEOMETRIC_REPRESENTATION_ITEM()
RATIONAL_B_SPLINE_CURVE((1.86602540378444,1.86602540378444,1.73205080756822))
REPRESENTATION_ITEM('')
);
#26=(
BOUNDED_CURVE()
B_SPLINE_CURVE(2,(#453,#454,#455),.UNSPECIFIED.,.F.,.F.)
B_SPLINE_CURVE_WITH_KNOTS((3,3),(0.828740437871358,1.36602540378444),
 .UNSPECIFIED.)
CURVE()
GEOMETRIC_REPRESENTATION_ITEM()
RATIONAL_B_SPLINE_CURVE((1.73205080756822,1.86602540378444,1.86602540378444))
REPRESENTATION_ITEM('')
);
#27=(
BOUNDED_CURVE()
B_SPLINE_CURVE(2,(#456,#457,#458),.UNSPECIFIED.,.F.,.F.)
B_SPLINE_CURVE_WITH_KNOTS((3,3),(1.36602540378444,1.90331036969753),
 .UNSPECIFIED.)
CURVE()
GEOMETRIC_REPRESENTATION_ITEM()
RATIONAL_B_SPLINE_CURVE((1.86602540378444,1.86602540378444,1.73205080756822))
REPRESENTATION_ITEM('')
);
#28=FACE_BOUND('',#60,.T.);
#29=PLANE('',#274);
#30=PLANE('',#275);
#31=PLANE('',#276);
#32=PLANE('',#283);
#33=PLANE('',#284);
#34=PLANE('',#285);
#35=PLANE('',#286);
#36=PLANE('',#287);
#37=PLANE('',#288);
#38=CYLINDRICAL_SURFACE('',#272,3.);
#39=FACE_OUTER_BOUND('',#56,.T.);
#40=FACE_OUTER_BOUND('',#57,.T.);
#41=FACE_OUTER_BOUND('',#58,.T.);
#42=FACE_OUTER_BOUND('',#59,.T.);
#43=FACE_OUTER_BOUND('',#61,.T.);
#44=FACE_OUTER_BOUND('',#62,.T.);
#45=FACE_OUTER_BOUND('',#63,.T.);
#46=FACE_OUTER_BOUND('',#64,.T.);
#47=FACE_OUTER_BOUND('',#65,.T.);
#48=FACE_OUTER_BOUND('',#66,.T.);
#49=FACE_OUTER_BOUND('',#67,.T.);
#50=FACE_OUTER_BOUND('',#68,.T.);
#51=FACE_OUTER_BOUND('',#69,.T.);
#52=FACE_OUTER_BOUND('',#70,.T.);
#53=FACE_OUTER_BOUND('',#71,.T.);
#54=FACE_OUTER_BOUND('',#72,.T.);
#55=FACE_OUTER_BOUND('',#73,.T.);
#56=EDGE_LOOP('',(#170,#171,#172,#173,#174));
#57=EDGE_LOOP('',(#175,#176,#177,#178,#179));
#58=EDGE_LOOP('',(#180));
#59=EDGE_LOOP('',(#181,#182,#183,#184,#185,#186));
#60=EDGE_LOOP('',(#187));
#61=EDGE_LOOP('',(#188,#189,#190,#191,#192,#193));
#62=EDGE_LOOP('',(#194,#195,#196,#197,#198));
#63=EDGE_LOOP('',(#199,#200,#201,#202,#203));
#64=EDGE_LOOP('',(#204,#205,#206,#207,#208));
#65=EDGE_LOOP('',(#209,#210,#211,#212,#213));
#66=EDGE_LOOP('',(#214,#215,#216,#217,#218));
#67=EDGE_LOOP('',(#219,#220,#221,#222,#223));
#68=EDGE_LOOP('',(#224,#225,#226));
#69=EDGE_LOOP('',(#227,#228,#229));
#70=EDGE_LOOP('',(#230,#231,#232));
#71=EDGE_LOOP('',(#233,#234,#235));
#72=EDGE_LOOP('',(#236,#237,#238));
#73=EDGE_LOOP('',(#239,#240,#241));
#74=LINE('',#372,#88);
#75=LINE('',#376,#89);
#76=LINE('',#382,#90);
#77=LINE('',#384,#91);
#78=LINE('',#386,#92);
#79=LINE('',#388,#93);
#80=LINE('',#390,#94);
#81=LINE('',#391,#95);
#82=LINE('',#414,#96);
#83=LINE('',#415,#97);
#84=LINE('',#424,#98);
#85=LINE('',#433,#99);
#86=LINE('',#442,#100);
#87=LINE('',#451,#101);
#88=VECTOR('',#303,2.8);
#89=VECTOR('',#308,3.);
#90=VECTOR('',#315,5.77350269189626);
#91=VECTOR('',#316,5.77350269189626);
#92=VECTOR('',#317,5.77350269189626);
#93=VECTOR('',#318,5.77350269189626);
#94=VECTOR('',#319,5.77350269189626);
#95=VECTOR('',#320,5.77350269189626);
#96=VECTOR('',#337,3.55341801261479);
#97=VECTOR('',#338,3.55341801261479);
#98=VECTOR('',#341,3.55341801261479);
#99=VECTOR('',#344,3.55341801261495);
#100=VECTOR('',#347,3.55341801261479);
#101=VECTOR('',#350,3.55341801261479);
#102=CIRCLE('',#269,3.);
#103=CIRCLE('',#270,3.);
#104=CIRCLE('',#271,2.6);
#105=CIRCLE('',#273,3.);
#106=CIRCLE('',#277,5.);
#107=CIRCLE('',#278,5.);
#108=CIRCLE('',#279,5.);
#109=CIRCLE('',#280,5.);
#110=CIRCLE('',#281,5.);
#111=CIRCLE('',#282,5.);
#112=VERTEX_POINT('',#367);
#113=VERTEX_POINT('',#368);
#114=VERTEX_POINT('',#371);
#115=VERTEX_POINT('',#375);
#116=VERTEX_POINT('',#380);
#117=VERTEX_POINT('',#381);
#118=VERTEX_POINT('',#383);
#119=VERTEX_POINT('',#385);
#120=VERTEX_POINT('',#387);
#121=VERTEX_POINT('',#389);
#122=VERTEX_POINT('',#393);
#123=VERTEX_POINT('',#394);
#124=VERTEX_POINT('',#396);
#125=VERTEX_POINT('',#398);
#126=VERTEX_POINT('',#400);
#127=VERTEX_POINT('',#402);
#128=VERTEX_POINT('',#406);
#129=VERTEX_POINT('',#410);
#130=VERTEX_POINT('',#420);
#131=VERTEX_POINT('',#429);
#132=VERTEX_POINT('',#438);
#133=VERTEX_POINT('',#447);
#134=EDGE_CURVE('',#112,#113,#102,.T.);
#135=EDGE_CURVE('',#113,#112,#103,.T.);
#136=EDGE_CURVE('',#113,#114,#74,.T.);
#137=EDGE_CURVE('',#114,#114,#104,.T.);
#138=EDGE_CURVE('',#112,#115,#75,.T.);
#139=EDGE_CURVE('',#115,#115,#105,.T.);
#140=EDGE_CURVE('',#116,#117,#76,.T.);
#141=EDGE_CURVE('',#117,#118,#77,.T.);
#142=EDGE_CURVE('',#118,#119,#78,.T.);
#143=EDGE_CURVE('',#119,#120,#79,.T.);
#144=EDGE_CURVE('',#120,#121,#80,.T.);
#145=EDGE_CURVE('',#121,#116,#81,.T.);
#146=EDGE_CURVE('',#122,#123,#106,.T.);
#147=EDGE_CURVE('',#124,#122,#107,.T.);
#148=EDGE_CURVE('',#125,#124,#108,.T.);
#149=EDGE_CURVE('',#126,#125,#109,.T.);
#150=EDGE_CURVE('',#127,#126,#110,.T.);
#151=EDGE_CURVE('',#123,#127,#111,.T.);
#152=EDGE_CURVE('',#128,#125,#16,.T.);
#153=EDGE_CURVE('',#125,#129,#17,.T.);
#154=EDGE_CURVE('',#129,#117,#82,.T.);
#155=EDGE_CURVE('',#128,#116,#83,.T.);
#156=EDGE_CURVE('',#129,#124,#18,.T.);
#157=EDGE_CURVE('',#124,#130,#19,.T.);
#158=EDGE_CURVE('',#130,#118,#84,.T.);
#159=EDGE_CURVE('',#130,#122,#20,.T.);
#160=EDGE_CURVE('',#122,#131,#21,.T.);
#161=EDGE_CURVE('',#131,#119,#85,.T.);
#162=EDGE_CURVE('',#131,#123,#22,.T.);
#163=EDGE_CURVE('',#123,#132,#23,.T.);
#164=EDGE_CURVE('',#132,#120,#86,.T.);
#165=EDGE_CURVE('',#132,#127,#24,.T.);
#166=EDGE_CURVE('',#127,#133,#25,.T.);
#167=EDGE_CURVE('',#133,#121,#87,.T.);
#168=EDGE_CURVE('',#133,#126,#26,.T.);
#169=EDGE_CURVE('',#126,#128,#27,.T.);
#170=ORIENTED_EDGE('',*,*,#134,.F.);
#171=ORIENTED_EDGE('',*,*,#135,.F.);
#172=ORIENTED_EDGE('',*,*,#136,.T.);
#173=ORIENTED_EDGE('',*,*,#137,.F.);
#174=ORIENTED_EDGE('',*,*,#136,.F.);
#175=ORIENTED_EDGE('',*,*,#134,.T.);
#176=ORIENTED_EDGE('',*,*,#135,.T.);
#177=ORIENTED_EDGE('',*,*,#138,.T.);
#178=ORIENTED_EDGE('',*,*,#139,.F.);
#179=ORIENTED_EDGE('',*,*,#138,.F.);
#180=ORIENTED_EDGE('',*,*,#137,.T.);
#181=ORIENTED_EDGE('',*,*,#140,.T.);
#182=ORIENTED_EDGE('',*,*,#141,.T.);
#183=ORIENTED_EDGE('',*,*,#142,.T.);
#184=ORIENTED_EDGE('',*,*,#143,.T.);
#185=ORIENTED_EDGE('',*,*,#144,.T.);
#186=ORIENTED_EDGE('',*,*,#145,.T.);
#187=ORIENTED_EDGE('',*,*,#139,.T.);
#188=ORIENTED_EDGE('',*,*,#146,.F.);
#189=ORIENTED_EDGE('',*,*,#147,.F.);
#190=ORIENTED_EDGE('',*,*,#148,.F.);
#191=ORIENTED_EDGE('',*,*,#149,.F.);
#192=ORIENTED_EDGE('',*,*,#150,.F.);
#193=ORIENTED_EDGE('',*,*,#151,.F.);
#194=ORIENTED_EDGE('',*,*,#152,.T.);
#195=ORIENTED_EDGE('',*,*,#153,.T.);
#196=ORIENTED_EDGE('',*,*,#154,.T.);
#197=ORIENTED_EDGE('',*,*,#140,.F.);
#198=ORIENTED_EDGE('',*,*,#155,.F.);
#199=ORIENTED_EDGE('',*,*,#156,.T.);
#200=ORIENTED_EDGE('',*,*,#157,.T.);
#201=ORIENTED_EDGE('',*,*,#158,.T.);
#202=ORIENTED_EDGE('',*,*,#141,.F.);
#203=ORIENTED_EDGE('',*,*,#154,.F.);
#204=ORIENTED_EDGE('',*,*,#159,.T.);
#205=ORIENTED_EDGE('',*,*,#160,.T.);
#206=ORIENTED_EDGE('',*,*,#161,.T.);
#207=ORIENTED_EDGE('',*,*,#142,.F.);
#208=ORIENTED_EDGE('',*,*,#158,.F.);
#209=ORIENTED_EDGE('',*,*,#162,.T.);
#210=ORIENTED_EDGE('',*,*,#163,.T.);
#211=ORIENTED_EDGE('',*,*,#164,.T.);
#212=ORIENTED_EDGE('',*,*,#143,.F.);
#213=ORIENTED_EDGE('',*,*,#161,.F.);
#214=ORIENTED_EDGE('',*,*,#165,.T.);
#215=ORIENTED_EDGE('',*,*,#166,.T.);
#216=ORIENTED_EDGE('',*,*,#167,.T.);
#217=ORIENTED_EDGE('',*,*,#144,.F.);
#218=ORIENTED_EDGE('',*,*,#164,.F.);
#219=ORIENTED_EDGE('',*,*,#168,.T.);
#220=ORIENTED_EDGE('',*,*,#169,.T.);
#221=ORIENTED_EDGE('',*,*,#155,.T.);
#222=ORIENTED_EDGE('',*,*,#145,.F.);
#223=ORIENTED_EDGE('',*,*,#167,.F.);
#224=ORIENTED_EDGE('',*,*,#160,.F.);
#225=ORIENTED_EDGE('',*,*,#146,.T.);
#226=ORIENTED_EDGE('',*,*,#162,.F.);
#227=ORIENTED_EDGE('',*,*,#157,.F.);
#228=ORIENTED_EDGE('',*,*,#147,.T.);
#229=ORIENTED_EDGE('',*,*,#159,.F.);
#230=ORIENTED_EDGE('',*,*,#153,.F.);
#231=ORIENTED_EDGE('',*,*,#148,.T.);
#232=ORIENTED_EDGE('',*,*,#156,.F.);
#233=ORIENTED_EDGE('',*,*,#152,.F.);
#234=ORIENTED_EDGE('',*,*,#169,.F.);
#235=ORIENTED_EDGE('',*,*,#149,.T.);
#236=ORIENTED_EDGE('',*,*,#166,.F.);
#237=ORIENTED_EDGE('',*,*,#150,.T.);
#238=ORIENTED_EDGE('',*,*,#168,.F.);
#239=ORIENTED_EDGE('',*,*,#163,.F.);
#240=ORIENTED_EDGE('',*,*,#151,.T.);
#241=ORIENTED_EDGE('',*,*,#165,.F.);
#242=CONICAL_SURFACE('',#268,2.8,0.785398163397448);
#243=CONICAL_SURFACE('',#289,5.,1.0471975511966);
#244=CONICAL_SURFACE('',#290,5.,1.0471975511966);
#245=CONICAL_SURFACE('',#291,5.,1.0471975511966);
#246=CONICAL_SURFACE('',#292,5.,1.0471975511966);
#247=CONICAL_SURFACE('',#293,5.,1.0471975511966);
#248=CONICAL_SURFACE('',#294,5.,1.0471975511966);
#249=ADVANCED_FACE('',(#39),#242,.T.);
#250=ADVANCED_FACE('',(#40),#38,.T.);
#251=ADVANCED_FACE('',(#41),#29,.F.);
#252=ADVANCED_FACE('',(#42,#28),#30,.T.);
#253=ADVANCED_FACE('',(#43),#31,.F.);
#254=ADVANCED_FACE('',(#44),#32,.T.);
#255=ADVANCED_FACE('',(#45),#33,.T.);
#256=ADVANCED_FACE('',(#46),#34,.T.);
#257=ADVANCED_FACE('',(#47),#35,.T.);
#258=ADVANCED_FACE('',(#48),#36,.T.);
#259=ADVANCED_FACE('',(#49),#37,.T.);
#260=ADVANCED_FACE('',(#50),#243,.T.);
#261=ADVANCED_FACE('',(#51),#244,.T.);
#262=ADVANCED_FACE('',(#52),#245,.T.);
#263=ADVANCED_FACE('',(#53),#246,.T.);
#264=ADVANCED_FACE('',(#54),#247,.T.);
#265=ADVANCED_FACE('',(#55),#248,.T.);
#266=CLOSED_SHELL('',(#249,#250,#251,#252,#253,#254,#255,#256,#257,#258,
#259,#260,#261,#262,#263,#264,#265));
#267=AXIS2_PLACEMENT_3D('placement',#365,#295,#296);
#268=AXIS2_PLACEMENT_3D('',#366,#297,#298);
#269=AXIS2_PLACEMENT_3D('',#369,#299,#300);
#270=AXIS2_PLACEMENT_3D('',#370,#301,#302);
#271=AXIS2_PLACEMENT_3D('',#373,#304,#305);
#272=AXIS2_PLACEMENT_3D('',#374,#306,#307);
#273=AXIS2_PLACEMENT_3D('',#377,#309,#310);
#274=AXIS2_PLACEMENT_3D('',#378,#311,#312);
#275=AXIS2_PLACEMENT_3D('',#379,#313,#314);
#276=AXIS2_PLACEMENT_3D('',#392,#321,#322);
#277=AXIS2_PLACEMENT_3D('',#395,#323,#324);
#278=AXIS2_PLACEMENT_3D('',#397,#325,#326);
#279=AXIS2_PLACEMENT_3D('',#399,#327,#328);
#280=AXIS2_PLACEMENT_3D('',#401,#329,#330);
#281=AXIS2_PLACEMENT_3D('',#403,#331,#332);
#282=AXIS2_PLACEMENT_3D('',#404,#333,#334);
#283=AXIS2_PLACEMENT_3D('',#405,#335,#336);
#284=AXIS2_PLACEMENT_3D('',#416,#339,#340);
#285=AXIS2_PLACEMENT_3D('',#425,#342,#343);
#286=AXIS2_PLACEMENT_3D('',#434,#345,#346);
#287=AXIS2_PLACEMENT_3D('',#443,#348,#349);
#288=AXIS2_PLACEMENT_3D('',#452,#351,#352);
#289=AXIS2_PLACEMENT_3D('',#459,#353,#354);
#290=AXIS2_PLACEMENT_3D('',#460,#355,#356);
#291=AXIS2_PLACEMENT_3D('',#461,#357,#358);
#292=AXIS2_PLACEMENT_3D('',#462,#359,#360);
#293=AXIS2_PLACEMENT_3D('',#463,#361,#362);
#294=AXIS2_PLACEMENT_3D('',#464,#363,#364);
#295=DIRECTION('axis',(0.,0.,1.));
#296=DIRECTION('refdir',(1.,0.,0.));
#297=DIRECTION('center_axis',(1.83697019872103E-16,0.,1.));
#298=DIRECTION('ref_axis',(0.,1.,0.));
#299=DIRECTION('center_axis',(1.83697019872103E-16,0.,1.));
#300=DIRECTION('ref_axis',(0.,1.,0.));
#301=DIRECTION('center_axis',(1.83697019872103E-16,0.,1.));
#302=DIRECTION('ref_axis',(0.,1.,0.));
#303=DIRECTION('',(-4.32978028117748E-17,0.707106781186547,-0.707106781186548));
#304=DIRECTION('center_axis',(-1.83697019872103E-16,0.,-1.));
#305=DIRECTION('ref_axis',(0.,1.,0.));
#306=DIRECTION('center_axis',(1.83697019872103E-16,0.,1.));
#307=DIRECTION('ref_axis',(0.,-1.,0.));
#308=DIRECTION('',(1.83697019872103E-16,0.,1.));
#309=DIRECTION('center_axis',(1.83697019872103E-16,0.,1.));
#310=DIRECTION('ref_axis',(0.,-1.,0.));
#311=DIRECTION('center_axis',(1.83697019872103E-16,0.,1.));
#312=DIRECTION('ref_axis',(-1.,0.,1.83697019872103E-16));
#313=DIRECTION('center_axis',(-1.83697019872103E-16,0.,-1.));
#314=DIRECTION('ref_axis',(1.,0.,-1.83697019872103E-16));
#315=DIRECTION('',(0.,1.,0.));
#316=DIRECTION('',(0.866025403784439,0.5,-1.59086285808736E-16));
#317=DIRECTION('',(0.866025403784439,-0.5,-1.59086285808736E-16));
#318=DIRECTION('',(0.,-1.,0.));
#319=DIRECTION('',(-0.866025403784439,-0.5,1.59086285808736E-16));
#320=DIRECTION('',(-0.866025403784438,0.5,1.59086285808736E-16));
#321=DIRECTION('center_axis',(-1.83697019872103E-16,0.,-1.));
#322=DIRECTION('ref_axis',(1.,0.,-1.83697019872103E-16));
#323=DIRECTION('center_axis',(-1.83697019872103E-16,0.,-1.));
#324=DIRECTION('ref_axis',(1.,0.,-1.83697019872103E-16));
#325=DIRECTION('center_axis',(-1.83697019872103E-16,0.,-1.));
#326=DIRECTION('ref_axis',(1.,0.,-1.83697019872103E-16));
#327=DIRECTION('center_axis',(-1.83697019872103E-16,0.,-1.));
#328=DIRECTION('ref_axis',(1.,0.,-1.83697019872103E-16));
#329=DIRECTION('center_axis',(-1.83697019872103E-16,0.,-1.));
#330=DIRECTION('ref_axis',(1.,0.,-1.83697019872103E-16));
#331=DIRECTION('center_axis',(-1.83697019872103E-16,0.,-1.));
#332=DIRECTION('ref_axis',(1.,0.,-1.83697019872103E-16));
#333=DIRECTION('center_axis',(-1.83697019872103E-16,0.,-1.));
#334=DIRECTION('ref_axis',(1.,0.,-1.83697019872103E-16));
#335=DIRECTION('center_axis',(-1.,0.,1.83697019872103E-16));
#336=DIRECTION('ref_axis',(-1.83697019872103E-16,0.,-1.));
#337=DIRECTION('',(-1.83697019872103E-16,0.,-1.));
#338=DIRECTION('',(-1.83697019872103E-16,0.,-1.));
#339=DIRECTION('center_axis',(-0.5,0.866025403784439,9.18485099360514E-17));
#340=DIRECTION('ref_axis',(0.866025403784439,0.5,-1.59086285808736E-16));
#341=DIRECTION('',(-1.83697019872103E-16,0.,-1.));
#342=DIRECTION('center_axis',(0.5,0.866025403784439,-9.18485099360515E-17));
#343=DIRECTION('ref_axis',(1.83697019872103E-16,0.,1.));
#344=DIRECTION('',(-1.83697019872103E-16,0.,-1.));
#345=DIRECTION('center_axis',(1.,0.,-1.83697019872103E-16));
#346=DIRECTION('ref_axis',(1.83697019872103E-16,0.,1.));
#347=DIRECTION('',(-1.83697019872103E-16,0.,-1.));
#348=DIRECTION('center_axis',(0.5,-0.866025403784439,-9.18485099360515E-17));
#349=DIRECTION('ref_axis',(1.83697019872103E-16,0.,1.));
#350=DIRECTION('',(-1.83697019872103E-16,0.,-1.));
#351=DIRECTION('center_axis',(-0.5,-0.866025403784439,9.18485099360515E-17));
#352=DIRECTION('ref_axis',(-1.83697019872103E-16,0.,-1.));
#353=DIRECTION('center_axis',(-1.83697019872103E-16,0.,-1.));
#354=DIRECTION('ref_axis',(1.,0.,-1.83697019872103E-16));
#355=DIRECTION('center_axis',(-1.83697019872103E-16,0.,-1.));
#356=DIRECTION('ref_axis',(1.,0.,-1.83697019872103E-16));
#357=DIRECTION('center_axis',(-1.83697019872103E-16,0.,-1.));
#358=DIRECTION('ref_axis',(1.,0.,-1.83697019872103E-16));
#359=DIRECTION('center_axis',(-1.83697019872103E-16,0.,-1.));
#360=DIRECTION('ref_axis',(1.,0.,-1.83697019872103E-16));
#361=DIRECTION('center_axis',(-1.83697019872103E-16,0.,-1.));
#362=DIRECTION('ref_axis',(1.,0.,-1.83697019872103E-16));
#363=DIRECTION('center_axis',(-1.83697019872103E-16,0.,-1.));
#364=DIRECTION('ref_axis',(1.,0.,-1.83697019872103E-16));
#365=CARTESIAN_POINT('',(0.,0.,0.));
#366=CARTESIAN_POINT('Origin',(-2.16762483449082E-15,0.,-15.8));
#367=CARTESIAN_POINT('',(-1.76349139077219E-15,3.,-15.6));
#368=CARTESIAN_POINT('',(-2.4982794702606E-15,-3.,-15.6));
#369=CARTESIAN_POINT('Origin',(-2.13088543051639E-15,0.,-15.6));
#370=CARTESIAN_POINT('Origin',(-2.13088543051639E-15,0.,-15.6));
#371=CARTESIAN_POINT('',(-2.52277240624355E-15,-2.6,-16.));
#372=CARTESIAN_POINT('',(-2.51052593825207E-15,-2.8,-15.8));
#373=CARTESIAN_POINT('Origin',(-2.20436423846524E-15,0.,-16.));
#374=CARTESIAN_POINT('Origin',(0.,0.,-4.));
#375=CARTESIAN_POINT('',(-3.67394039744206E-16,3.,6.74891902197836E-32));
#376=CARTESIAN_POINT('',(-3.67394039744206E-16,3.,-4.));
#377=CARTESIAN_POINT('Origin',(0.,0.,0.));
#378=CARTESIAN_POINT('Origin',(-2.20436423846524E-15,0.,-16.));
#379=CARTESIAN_POINT('Origin',(-5.,2.88675134594813,9.18485099360515E-16));
#380=CARTESIAN_POINT('',(-5.,-2.88675134594813,9.18485099360515E-16));
#381=CARTESIAN_POINT('',(-5.,2.88675134594813,9.18485099360515E-16));
#382=CARTESIAN_POINT('',(-5.,-2.88675134594813,9.18485099360515E-16));
#383=CARTESIAN_POINT('',(2.57043027631042E-15,5.77350269189626,-4.7218038154725E-31));
#384=CARTESIAN_POINT('',(-5.,2.88675134594813,9.18485099360515E-16));
#385=CARTESIAN_POINT('',(5.,2.88675134594813,-9.18485099360515E-16));
#386=CARTESIAN_POINT('',(2.57043027631042E-15,5.77350269189626,-4.7218038154725E-31));
#387=CARTESIAN_POINT('',(5.,-2.88675134594813,-9.18485099360515E-16));
#388=CARTESIAN_POINT('',(5.,2.88675134594813,-9.18485099360515E-16));
#389=CARTESIAN_POINT('',(-4.11487113919384E-16,-5.77350269189626,7.55889565427633E-32));
#390=CARTESIAN_POINT('',(5.,-2.88675134594813,-9.18485099360515E-16));
#391=CARTESIAN_POINT('',(-4.11487113919384E-16,-5.77350269189626,7.55889565427633E-32));
#392=CARTESIAN_POINT('Origin',(-5.,2.88675134594813,4.));
#393=CARTESIAN_POINT('',(2.5,4.33012701892219,4.));
#394=CARTESIAN_POINT('',(5.,-1.50231459873716E-15,4.));
#395=CARTESIAN_POINT('Origin',(7.34788079488411E-16,0.,4.));
#396=CARTESIAN_POINT('',(-2.5,4.33012701892219,4.));
#397=CARTESIAN_POINT('Origin',(7.34788079488411E-16,0.,4.));
#398=CARTESIAN_POINT('',(-5.,0.,4.));
#399=CARTESIAN_POINT('Origin',(7.34788079488411E-16,0.,4.));
#400=CARTESIAN_POINT('',(-2.5,-4.3301270189222,4.));
#401=CARTESIAN_POINT('Origin',(7.34788079488411E-16,0.,4.));
#402=CARTESIAN_POINT('',(2.5,-4.33012701892219,4.));
#403=CARTESIAN_POINT('Origin',(7.34788079488411E-16,0.,4.));
#404=CARTESIAN_POINT('Origin',(7.34788079488411E-16,0.,4.));
#405=CARTESIAN_POINT('Origin',(-5.,-2.88675134594813,4.));
#406=CARTESIAN_POINT('',(-5.,-2.88675134594813,3.5534180126148));
#407=CARTESIAN_POINT('Ctrl Pts',(-5.,-2.88675134595628,3.55341801261244));
#408=CARTESIAN_POINT('Ctrl Pts',(-5.,-1.33974596215889,4.));
#409=CARTESIAN_POINT('Ctrl Pts',(-5.,0.,4.));
#410=CARTESIAN_POINT('',(-5.,2.88675134594813,3.5534180126148));
#411=CARTESIAN_POINT('Ctrl Pts',(-5.,0.,4.));
#412=CARTESIAN_POINT('Ctrl Pts',(-5.,1.33974596215889,4.));
#413=CARTESIAN_POINT('Ctrl Pts',(-5.,2.88675134595627,3.55341801261245));
#414=CARTESIAN_POINT('',(-5.,2.88675134594813,3.5534180126148));
#415=CARTESIAN_POINT('',(-5.,-2.88675134594813,3.5534180126148));
#416=CARTESIAN_POINT('Origin',(-5.,2.88675134594813,4.));
#417=CARTESIAN_POINT('Ctrl Pts',(-5.00000000000706,2.88675134594406,3.55341801261244));
#418=CARTESIAN_POINT('Ctrl Pts',(-3.66025403784722,3.66025403784275,4.));
#419=CARTESIAN_POINT('Ctrl Pts',(-2.5,4.33012701892219,4.));
#420=CARTESIAN_POINT('',(3.17422627444395E-15,5.77350269189626,3.5534180126148));
#421=CARTESIAN_POINT('Ctrl Pts',(-2.5,4.33012701892219,4.));
#422=CARTESIAN_POINT('Ctrl Pts',(-1.33974596215278,5.00000000000164,4.));
#423=CARTESIAN_POINT('Ctrl Pts',(7.05804224410489E-12,5.77350269190033,
3.55341801261244));
#424=CARTESIAN_POINT('',(3.2231825755876E-15,5.77350269189626,3.5534180126148));
#425=CARTESIAN_POINT('Origin',(3.30521835579883E-15,5.77350269189626,4.));
#426=CARTESIAN_POINT('Ctrl Pts',(-7.05214515853331E-12,5.77350269190033,
3.55341801261244));
#427=CARTESIAN_POINT('Ctrl Pts',(1.33974596215278,5.00000000000164,3.99999999999999));
#428=CARTESIAN_POINT('Ctrl Pts',(2.49999999999999,4.3301270189222,3.99999999999999));
#429=CARTESIAN_POINT('',(5.,2.88675134594836,3.55341801261495));
#430=CARTESIAN_POINT('Ctrl Pts',(2.49999999999999,4.3301270189222,3.99999999999999));
#431=CARTESIAN_POINT('Ctrl Pts',(3.66025403784717,3.66025403784278,4.));
#432=CARTESIAN_POINT('Ctrl Pts',(5.00000000000693,2.88675134594413,3.55341801261248));
#433=CARTESIAN_POINT('',(5.,2.88675134594813,3.55341801261495));
#434=CARTESIAN_POINT('Origin',(5.,2.88675134594813,4.));
#435=CARTESIAN_POINT('Ctrl Pts',(5.,2.88675134595645,3.55341801261239));
#436=CARTESIAN_POINT('Ctrl Pts',(5.,1.33974596215896,3.99999999999999));
#437=CARTESIAN_POINT('Ctrl Pts',(5.,-2.85584028352079E-15,3.99999999999999));
#438=CARTESIAN_POINT('',(5.,-2.88675134594813,3.55341801261479));
#439=CARTESIAN_POINT('Ctrl Pts',(5.,-2.85584028352079E-15,3.99999999999999));
#440=CARTESIAN_POINT('Ctrl Pts',(5.,-1.33974596215889,3.99999999999999));
#441=CARTESIAN_POINT('Ctrl Pts',(5.,-2.88675134595628,3.55341801261244));
#442=CARTESIAN_POINT('',(5.,-2.88675134594813,3.55341801261479));
#443=CARTESIAN_POINT('Origin',(5.,-2.88675134594813,4.));
#444=CARTESIAN_POINT('Ctrl Pts',(5.00000000000706,-2.88675134594406,3.55341801261244));
#445=CARTESIAN_POINT('Ctrl Pts',(3.66025403784723,-3.66025403784275,3.99999999999999));
#446=CARTESIAN_POINT('Ctrl Pts',(2.50000000000001,-4.33012701892219,3.99999999999999));
#447=CARTESIAN_POINT('',(2.32440155826878E-16,-5.77350269189626,3.5534180126148));
#448=CARTESIAN_POINT('Ctrl Pts',(2.50000000000001,-4.33012701892219,3.99999999999999));
#449=CARTESIAN_POINT('Ctrl Pts',(1.33974596215278,-5.00000000000164,3.99999999999999));
#450=CARTESIAN_POINT('Ctrl Pts',(-7.05317073863272E-12,-5.77350269190034,
3.55341801261244));
#451=CARTESIAN_POINT('',(2.41265185357805E-16,-5.77350269189626,3.5534180126148));
#452=CARTESIAN_POINT('Origin',(3.23300965569028E-16,-5.77350269189626,4.));
#453=CARTESIAN_POINT('Ctrl Pts',(7.05240155355817E-12,-5.77350269190034,
3.55341801261244));
#454=CARTESIAN_POINT('Ctrl Pts',(-1.33974596215278,-5.00000000000164,3.99999999999999));
#455=CARTESIAN_POINT('Ctrl Pts',(-2.50000000000001,-4.3301270189222,3.99999999999999));
#456=CARTESIAN_POINT('Ctrl Pts',(-2.50000000000001,-4.3301270189222,3.99999999999999));
#457=CARTESIAN_POINT('Ctrl Pts',(-3.66025403784723,-3.66025403784275,3.99999999999999));
#458=CARTESIAN_POINT('Ctrl Pts',(-5.00000000000706,-2.88675134594406,3.55341801261244));
#459=CARTESIAN_POINT('Origin',(7.34788079488411E-16,0.,4.));
#460=CARTESIAN_POINT('Origin',(7.34788079488411E-16,0.,4.));
#461=CARTESIAN_POINT('Origin',(7.34788079488411E-16,0.,4.));
#462=CARTESIAN_POINT('Origin',(7.34788079488411E-16,0.,4.));
#463=CARTESIAN_POINT('Origin',(7.34788079488411E-16,0.,4.));
#464=CARTESIAN_POINT('Origin',(7.34788079488411E-16,0.,4.));
#465=UNCERTAINTY_MEASURE_WITH_UNIT(LENGTH_MEASURE(0.001),#469,
'DISTANCE_ACCURACY_VALUE',
'Maximum model space distance between geometric entities at asserted c
onnectivities');
#466=UNCERTAINTY_MEASURE_WITH_UNIT(LENGTH_MEASURE(0.001),#469,
'DISTANCE_ACCURACY_VALUE',
'Maximum model space distance between geometric entities at asserted c
onnectivities');
#467=(
GEOMETRIC_REPRESENTATION_CONTEXT(3)
GLOBAL_UNCERTAINTY_ASSIGNED_CONTEXT((#465))
GLOBAL_UNIT_ASSIGNED_CONTEXT((#469,#470,#471))
REPRESENTATION_CONTEXT('','3D')
);
#468=(
GEOMETRIC_REPRESENTATION_CONTEXT(3)
GLOBAL_UNCERTAINTY_ASSIGNED_CONTEXT((#466))
GLOBAL_UNIT_ASSIGNED_CONTEXT((#469,#470,#471))
REPRESENTATION_CONTEXT('','3D')
);
#469=(
LENGTH_UNIT()
NAMED_UNIT(*)
SI_UNIT(.CENTI.,.METRE.)
);
#470=(
NAMED_UNIT(*)
PLANE_ANGLE_UNIT()
SI_UNIT($,.RADIAN.)
);
#471=(
NAMED_UNIT(*)
SI_UNIT($,.STERADIAN.)
SOLID_ANGLE_UNIT()
);
#472=SHAPE_DEFINITION_REPRESENTATION(#473,#474);
#473=PRODUCT_DEFINITION_SHAPE('',$,#476);
#474=SHAPE_REPRESENTATION('',(#267),#467);
#475=PRODUCT_DEFINITION_CONTEXT('part definition',#480,'design');
#476=PRODUCT_DEFINITION('Product','Product',#477,#475);
#477=PRODUCT_DEFINITION_FORMATION('',$,#482);
#478=PRODUCT_RELATED_PRODUCT_CATEGORY('Product','Product',(#482));
#479=APPLICATION_PROTOCOL_DEFINITION('international standard',
'automotive_design',2009,#480);
#480=APPLICATION_CONTEXT(
'Core Data for Automotive Mechanical Design Process');
#481=PRODUCT_CONTEXT('part definition',#480,'mechanical');
#482=PRODUCT('Product','Product',$,(#481));
#483=PRESENTATION_STYLE_ASSIGNMENT((#484));
#484=SURFACE_STYLE_USAGE(.BOTH.,#485);
#485=SURFACE_SIDE_STYLE('',(#486));
#486=SURFACE_STYLE_FILL_AREA(#487);
#487=FILL_AREA_STYLE('',(#488));
#488=FILL_AREA_STYLE_COLOUR('',#489);
#489=COLOUR_RGB('',1.,1.,1.);
ENDSEC;
END-ISO-10303-21;
